Klangkarussell

Sonnentanz

Klangkarussell

tabs

by  HEBEALMEIDA

save to print version add songbook text version e-mail correct tuner
chordsukulelecavacokeyboardtabbassdrumsharmonicaflute Guitar Pro
close

there isn't a video lesson for this song

chords

Sonnentanz

	  		Plucked. 

Intro 

e|---------------------------------------------------------------------------| 
B|---------------------------------------------------------------------------| 
G|--------------5--5--5--5--------------7--7--7--7---------------------------| 
D|--------------------------8--8--8--8---------------------------------------| 
A|--3--3--3--3--6--6--6--6--6--6--6--6--8--8--8--8---------------------------| 
E|--1--1--1--1--4--4--4--4--------------6--6--6--6---------------------------| 


verse 1 

e|---------------------------------------------------------------------------| 
B|---------------------------------------------------------------------------| 
G|--------------5--5--5--5---------------------------------------------------| 
D|--------------------------8--8--8--8---------------------------------------| 
A|--3--3--3--3--6--6--6--6--6--6--6--6---------------------------------------| 
E|--1--1--1--1--4--4--4--4---------------------------------------------------| 

e|---------------------------------------------------------------------------| 
B|---------------------------------------------------------------------------| 
G|--------------5--5--5--5--------------7--7--7--7---------------------------| 
D|--------------------------8--8--8--8---------------------------------------| 
A|--3--3--3--3--6--6--6--6--6--6--6--6--8--8--8--8---------------------------| 
E|--1--1--1--1--4--4--4--4--------------6--6--6--6---------------------------| 


Pre-Chorus 1 

e|---------------------------------------------------------------------------| 
B|---------------------------------------------------------------------------| 
G|--------------5--5--5--5--------------7--7--7--7---------------------------| x2 
D|--------------------------8--8--8--8---------------------------------------| 
A|--3--3--3--3--6--6--6--6--6--6--6--6--8--8--8--8---------------------------| 
E|--1--1--1--1--4--4--4--4--------------6--6--6--6---------------------------| 


Chorus 

e|---------------------------------------------------------------------------| 
B|---------------------------------------------------------------------------| 
G|--------------5--5--5--5--------------7--7--7--7---------------------------| x2 
D|--------------------------8--8--8--8---------------------------------------| 
A|--3--3--3--3--6--6--6--6--6--6--6--6--8--8--8--8---------------------------| 
E|--1--1--1--1--4--4--4--4--------------6--6--6--6---------------------------| 


verse 2 

e|---------------------------------------------------------------------------| 
B|---------------------------------------------------------------------------| 
G|--------------5--5--5--5--------------7--7--7--7---------------------------| 
D|--------------------------8--8--8--8---------------------------------------| 
A|--3--3--3--3--6--6--6--6--6--6--6--6--8--8--8--8---------------------------| 
E|--1--1--1--1--4--4--4--4--------------6--6--6--6---------------------------| 


Pre-Chorus 2 

e|---------------------------------------------------------------------------| 
B|---------------------------------------------------------------------------| 
G|--------------5--5--5--5--------------7--7--7--7---------------------------|  
D|--------------------------8--8--8--8---------------------------------------| 
A|--3--3--3--3--6--6--6--6--6--6--6--6--8--8--8--8---------------------------| 
E|--1--1--1--1--4--4--4--4--------------6--6--6--6---------------------------| 

e|--------------------------------------------------------s--s--s------------| 
B|--------------------------------------------------------s--s--s------------| 
G|--------------5--5--5--5--------------7--7--7--7--7--7--s--s--s------------| Strum the last 4 chords of the  
D|--------------------------8--8--8--8--------------------s--s--s------------| last chord progression. 
A|--3--3--3--3--6--6--6--6--6--6--6--6--8--8--8--8--8--8--s--s--s------------| 
E|--1--1--1--1--4--4--4--4--------------6--6--6--6--6--6--s--s--s------------| 


Chorus 

e|---------------------------------------------------------------------------| 
B|---------------------------------------------------------------------------| 
G|--------------5--5--5--5--------------7--7--7--7---------------------------| x2 
D|--------------------------8--8--8--8---------------------------------------| 
A|--3--3--3--3--6--6--6--6--6--6--6--6--8--8--8--8---------------------------| 
E|--1--1--1--1--4--4--4--4--------------6--6--6--6---------------------------| 


Outro 

e|---------------------------------------------------------------------------| 
B|---------------------------------------------------------------------------| 
G|--------------5--5--5--5--------------7--7--7--7---------------------------| x2 
D|--------------------------8--8--8--8---------------------------------------| 
A|--3--3--3--3--6--6--6--6--6--6--6--6--8--8--8--8---------------------------| 
E|--1--1--1--1--4--4--4--4--------------6--6--6--6---------------------------| 

e|---------------------------------------------------------------------------| 
B|---------------------------------------------------------------------------| 
G|--------------5--5--5--5--------------7------------------------------------| 
D|--------------------------8--8--8--8---------------------------------------| 
A|--3--3--3--3--6--6--6--6--6--6--6--6--8------------------------------------| 
E|--1--1--1--1--4--4--4--4--------------6------------------------------------| 
		  

See also:

tabs Klangkarussell - Sonnentanz tabs Chet Faker - The Trouble With Us
e-chords

Other versions:

tabs Klangkarussell - Sonnentanz
auto scroll beats size up size down change color hide chords drawings
tab show chords e-chords YouTube Clip e-chords hide all tabs e-chords go to top tab

share