Kittie

Into The Darkness

Kittie

tabs

save to print version add songbook text version e-mail correct tuner
chordsukulelecavacokeyboardtabbassdrumsharmonicaflute Guitar Pro
close

there isn't a video lesson for this song

chords

Into The Darkness

	  		 
Afinação 
1ª:D    4ª:C 
2ª:A    5ª:G 
3ª:F    6ª:C 
 
 
(INTRO) 
 
D|----------------------------------------------| 
A|----------------------------------------------| 
F|--9----|------5----|------|-7-----------------| 
C|--9----|16x---3----|-16x--|-5--16x------------| 
G|--7----|------3----|------|-5-----------------| 
C|----------------------------------------------| 
 
D|----------------------------------------------| 
A|----------------------------------------------| 
F|-----------------------------5-5-5------------|2x 
C|-0-0-0-3/2--0--0-0-0-3/2--0--5-5-5------------| 
G|-0-0-0-3/2--0--0-0-0-3/2--0--3-3-3------------| 
C|-0-0-0-3/2--0--0-0-0-3/2--0-------------------| 
 
VERSE 
 
D|----------------------------------------------| 
A|----------------------------------------------| 
F|----------------------------------------------| 
C|-2-2-2-2-2-2-2-4-2-2-2-2-2-2-2-2--------------|2x 
G|-2-2-2-2-2-2-2-4-2-2-2-2-2-2-2-2--------------| 
C|-2-2-2-2-2-2-2-4-2-2-2-2-2-2-2-2--------------| 
 
D|----------------------------------------------| 
A|----------------------------------------------| 
F|----------------------------------------------|2x 
C|-7-7-7-7-7-7-7-9-7-7-7-7-7-7-7-7-7------------| 
G|-7-7-7-7-7-7-7-9-7-7-7-7-7-7-7-7-7------------| 
C|-7-7-7-7-7-7-7-9-7-7-7-7-7-7-7-7-7------------| 
 
D|----------------------------------------------| 
A|----------------------------------------------| 
F|----------------------------------------------| 
C|-2-2-2-2-2-2-2-4-2-2-2-2-2-2-2-2--------------|2x 
G|-2-2-2-2-2-2-2-4-2-2-2-2-2-2-2-2--------------| 
C|-2-2-2-2-2-2-2-4-2-2-2-2-2-2-2-2--------------| 
 
D|----------------------------------------------| 
A|----------------------------------------------| 
F|----------------------------------------------|2x 
C|-7-7-7-7-7-7-7-9-7-7-7-7-7-7-7-7-7------------| 
G|-7-7-7-7-7-7-7-9-7-7-7-7-7-7-7-7-7------------| 
C|-7-7-7-7-7-7-7-9-7-7-7-7-7-7-7-7-7------------| 
 
PRÉ CHORUS 
 
D|----------------------------------------------| 
A|----------------------------------------------| 
F|-----------------------------5-5-5------------| 
C|-0-0-0-3/2--0--0-0-0-3/2--0--5-5-5------------| 
G|-0-0-0-3/2--0--0-0-0-3/2--0--3-3-3------------| 
C|-0-0-0-3/2--0--0-0-0-3/2--0-------------------| 
 
CHORUS 
 
D|----------------------------------------------- 
A|----------------------------------------------- 
F|-5/9-9-9-9-9-9--5-5-5-5-5-5--7-7-7-7-7-7------- 
C|-5/9-9-9-9-9-9--5-5-5-5-5-5--7-7-7-7-7-7------- 
G|-3/7-7-7-7-7-7--3-3-3-3-3-3--5-5-5-5-5-5------- 
C|----------------------------------------------- 
 
D|----------------------------------------------- 
A|----------------------------------------------- 
F|------------------------5-5-5------------------ 
C|-3-2-0--2-0--3-2-0--2-0-5-5-5------------------ 
G|-3-2-0--2-0--3-2-0--2-0-3-3-3------------------ 
C|-3-2-0--2-0--3-2-0--2-0------------------------ 
 
D|----------------------------------------------- 
A|----------------------------------------------- 
F|------------------------5-5-5------------------ 
C|-3-2-0--2-0--3-2-0--2-0-5-5-5------------------ 
G|-3-2-0--2-0--3-2-0--2-0-3-3-3------------------ 
C|-3-2-0--2-0--3-2-0--2-0------------------------ 
 
ANTES DO SOLO 
 
D|------------------------------------------------| 
A|------------------------------------------------| 
F|------------------------------------------------| 
C|--(6)~---(2)-(5)--------------------------------| 
G|--(6)~---(2)-(5)--------------------------------| 
C|--(6)~---(2)-(5)--------------------------------| 
 
SOLO 
 
D|------------------------------------------------- 
A|------------------------------------------------- 
F|------------7h8h7----4----7----------7h8h7----4-- 
C|-1/6-9-8-6---------2--2/5-----6-9-8-6-------2---- 
G|------------------------------------------------- 
C|------------------------------------------------- 
 
D|------------------------------------------------| 
A|------------------------------------------------| 
F|------7-----------------------------------------| 
C|-2/5--------------------------------------------| 
G|------------------------------------------------| 
C|------------------------------------------------| 
 
ANTES DO OUTRO REFRÃO 
 
D|------------------------------------------------| 
A|------------------------------------------------| 
F|-----------7-7-7-------------7-7-7--------------| 
C|-0--5-4--0-7-7-7---0--5-4--0-7-7-7--------------| 
G|-0--5-4--0-5-5-5---0--5-4--0-5-5-5--------------| 
C|-0--5-4--0---------0--5-4--0--------------------| 
 
ESTE REFRÃO É DIFERENTE DO ANTERIOR 
 
D|----------------------------------------------- 
A|----------------------------------------------- 
F|-7/-11-11-11-11-11-11--7-7-7-7-7-7-9-9-9-9-9-9- 
C|-7/-11-11-11-11-11-11--7-7-7-7-7-7-9-9-9-9-9-9- 
G|-5/-9--9---9--9--9--9--5-5-5-5-5-5-7-7-7-7-7-7- 
C|----------------------------------------------- 
 
D|----------------------------------------------- 
A|----------------------------------------------- 
F|------------------------7-7-7------------------ 
C|-3-2-0--2-0--3-2-0--2-0-7-7-7------------------ 
G|-3-2-0--2-0--3-2-0--2-0-5-5-5------------------ 
C|-3-2-0--2-0--3-2-0--2-0------------------------ 
 
D|----------------------------------------------- 
A|----------------------------------------------- 
F|------------------------7-7-7------------------ 
C|-3-2-0--2-0--3-2-0--2-0-7-7-7------------------ 
G|-3-2-0--2-0--3-2-0--2-0-5-5-5------------------ 
C|-3-2-0--2-0--3-2-0--2-0------------------------ 
 
Até o final 
 
 
FIM 
 
D|----------------------------------------------- 
A|----------------------------------------------- 
F|----------------------------------------------- 
C|-11-------------------------------------------- 
G|-11-------------------------------------------- 
C|--9-------------------------------------------- 
 
 
_______________________________________________________ 
Contribuição: Thiago Mendes Barros dos Santos([email protected]) 

		  

See also:

tabs Ozzy Osbourne - Paranoid (solo) tabs Iron Maiden - Infinite Dreams tabs Judas Priest - Painkiller tabs Bruce Dickinson - Tears Of The Dragon (ver. 3) tabs Black Sabbath - Paranoid Guitar (Solo) tabs Iron Maiden - Hallowed Be Thy Name
e-chords

Other versions:

tabs Kittie - Into The Darkness
auto scroll beats size up size down change color hide chords drawings
tab show chords e-chords YouTube Clip e-chords hide all tabs e-chords go to top tab

share