Kinky

Ejercicio #16

Kinky

tabs

by  DRKBLAZE

save to print version add songbook text version e-mail correct tuner
chordsukulelecavacokeyboardtabbassdrumsharmonicaflute Guitar Pro
close

there isn't a video lesson for this song

chords

Ejercicio #16

	  		INTRO x8 
 
G-------------------------| 
D-------------------------| 
A--------3----------------| 
E--33-66---3--------------| 
 
 
Verso1 igual al intro x8 
 
verso2 igual al intro x8 
 
 
EL OTRO CAMBIO QUE HACE LA CANCION: 
 
(precoro) 
G-------------------------|x4 
D-------------------------| 
A---3---------------------| 
E--3-3--343-133-133-------| 
 
Intro x4 
 
verso3 x8 
 
verso4 x8 
 
 
precoro 
 
G-------------------------|x4 
D-------------------------| 
A---3---------------------| 
E--3-3--343-133-133-------| 
 
precoro x2 
 
G-------------------------|---------------------| 
D-------------------------|---------------------| 
A---3---------------------|---3-----------------| 
E----3--343-133-133-------|--3-3--343-133-133---| 
 
 
verso5 x16     "se comienza por girar la cabeza..." 
 
G-------------------------| 
D-------------------------| 
A--------3----------------| 
E--33-66---3--------------| 
 
 
final x16 
 
G-------------------------|---------------------| 
D-------------------------|---------------------| 
A---3---------------------|---3-----------------| 
E----3--343-133-133-------|--3-3--343-133-133---| 
 
 

		  

See also:

tabs Kinky - Ejercicio #16
e-chords

Other versions:

tabs Kinky - Ejercicio #16
auto scroll beats size up size down change color hide chords drawings
tab show chords e-chords YouTube Clip e-chords hide all tabs e-chords go to top tab

share