Kings X

fall on me

Kings X

tabs

save to print version add songbook text version e-mail correct tuner
chordsukulelecavacokeyboardtabbassdrumsharmonicaflute Guitar Pro
close

there isn't a video lesson for this song

chords

fall on me

	  		 
    intro                            end intro    verse 
     1 e & & 3 a &    1 e & & 3 a &             1  a  & 
e| |----------------+----------------+--------+-------2--+ 
B|4|----------------|----------------|    //  |-------2--| 
G|-|----------------|----------------| 2 // 2 |-------4--| 
D|4|----------------|----------------|  //    |----4--4--| 
A| |-4h7-4-------2--|-4h7-4-----2----| //     |-2--2--2--| 
E| |-------0-2-4----+-------2-4---4--+--------+----------| 
  
                    *Alternate Fill 
     1  a  &   1234  1234            1 & a e &  3 & a e & 
e| |----------+----|------|--------+-----0----------0------+ 
B|4|-------4--|-5t-|-(5)--|    //  |-------5----------5----| 
G|-|-------4--|-4t-|-(4)--| 4 // 4 |---4-----4----4-----4--| 
D|4|-------4--|-6t-|-(6)--|  //    |-4----------2----------| 
A| |----------|-4t-|-(4)--| //     |-----------------------| 
E| |-2--3--4--+----|------|--------+-----------------------| 
 
 
 
 
 
                                                       chorus 
     1 & a e &  3 & a e &    1 & a e &  3 & a e &    1 e & & 3 a & 
e| |-----0----------0-5----+-----0----------0------+---------------+ 
B|4|-------5------------4--|-------5----------5----|---------------| 
G|-|---4-----4----4--------|---4-----4----4-----4--|---------------| 
D|4|-----------------------|-----------------------|-------------4-| 
A| |-4----------2----------|-0----------2----------|-------2-4-6---| 
E| |-----------------------+-----------------------+-4h7-4---------| 
 
   
     1 e & & 3 a &    1 e & & 3 a &    1 e & & 3  a & 
e| |----------------+----------------+-----------------+ 
B|4|----------------|----------------|-----------------| 
G|-|----------------|----------------|-----------------| 
D|4|----------------|-------------4--|-----------------| 
A| |-------2-4------|-------2-4-6----|-------2-4--5-5--| 
E| |-4h7-4-----2-2--+-4h7-4----------+-4h7-4------3-3--+ 
 
 
     1 e & & 3 a &    1 e & & 3 a &    1 e & & 3 a & 
e| |----------------+----------------+----------------+ 
B|4|----------------|----------------|----------------| 
G|-|----------------|----------------|----------------| 
D|4|-------------4--|----------------|-------------4--| 
A| |-------2-4-6----|-------2-4------|-------2-4-6----| 
E| |-4h7-4----------|-4h7-4-----2-2--+-4h7-4----------+ 
 
 
      end chorus 
     1 e & & 3  4 
e| |---------------+ 
B|4|---------------| 
G|-|---------------|   {NOW, REPEAT INTRO, VERSE, AND CHORUS} 
D|4|---------------|   ^^^^^^^^^^^^^^^^^^^^^^^^^^^^^^^^^^^^^^ 
A| |-------2-4--2--| 
E| |-4h7-4------0--+ 
 
     Solo 
     1  4 e &    1   a  4 &          2 &  4 &    1234 
E| |-----------+-----------------+-------------+------+ 
B|4|-----------|-----------------|-------------|------| 
G|-|-4--4/6\4--|-4--\3--4-6b(8)--|-r-4-4--6\1t-|-(1)--| 
D|4|-----------|-----------------|-------------|------| 
A|-|-----------|-----------------|-------------|------| 
E| |-----------+-----------------+-------------+------+ 
 
      2       e &   a      &     1      &  3      &  a      & 
E| |---------------------------+---------------------------------+ 
B|4|---------------------------|---------------------------------| 
G|-|-/11b(13)-r-p9--9b(11)-11--|-9b(11)-11-9b(11)-11-9b(11)-r-t--| 
D|4|---------------------------|---------------------------------| 
A|-|---------------------------|---------------------------------| 
E| |---------------------------+---------------------------------+ 
 
 
    
 
    
     &  a 2  e &  a 3  e &       4      a 
E| |---------------------------------------+ 
B|4|---------------------------------------| 
G|-|--------------9------11b(13)-9b(11)-r--| 
D|4|-11p9----9h11---11p9-------------------| 
A|-|------11-------------------------------| 
E| |---------------------------------------+ 
 
     1  e &  a 2 e   4 e       & a    1  e  & a 2       4 e  & a 
E| |--------------------------------+---------9---------9---------------+ 
B|4|---------------------------9-12-|----9-12---12b(14)---12-9----------| 
G|-|-----------9-----9-11b(13)------|-11-----------------------11b(13)--| 
D|4|-11p9----9---11-----------------|-----------------------------------| 
A|-|------11------------------------|-----------------------------------| 
E| |--------------------------------+-----------------------------------+ 
 
     1 e &       3       4 & 
E| |---9-12b(16)-12b(14)------------+ 
B|4|-9-------------------9-12b(14)--| 
G|-|--------------------------------| 
D|4|--------------------------------| 
A|-|--------------------------------| 
E| |--------------------------------+ 
 
     1       e &       a  3 e  &  b  c 4  b  c  a 
E| |-----------11b(12)-r-p9----11h12p11p9h11p9-----+ 
B|4|-12b(14)-9--------------12-----------------12--| 
G|-|-----------------------------------------------| 
D|4|-----------------------------------------------| 
A|-|-----------------------------------------------| 
E| |-----------------------------------------------+ 
 
     1  b c  & b  c  2 b  c &  b  c 3    a     4    b     c 
E| |-9---------------9----------------------------------------+ 
B|4|---12p9-------12---12p9-----------------------------------| 
G|-|--------12h13-----------12p11-9----11p9t--`(1)-`(1)-`(1)--| 
D|4|--------------------------------11------------------------| 
A|-|----------------------------------------------------------| 
E| |----------------------------------------------------------+ 
 
     &       3 b  c     4 b  c 
E| |---------------------------+ 
B|4|-12b(16)-r-9--------9----9-| 
G|-|-------------`13(1)---13---| 
D|4|---------------------------| 
A|-|---------------------------| 
E| |---------------------------+ 
 
     1      b        c 2      b c      3 b      c  &  a 
E| |------------------------------------------------------+ 
B|4|--------9--------9--------9--------9--------9-12`(1)--| 
G|-|-13`(1)---13`(1)---13`(1)---13`(1)---13`(1)-----------| 
D|4|------------------------------------------------------| 
A|-|------------------------------------------------------| 
E| |------------------------------------------------------+ 
 
 
 
     1      &  b    c    2    b    c   3       b     c        4 
E| |-----------------------------------------------------------------+ 
B|4|-12`(1)-11b(12)-r-p9-11b(12)-r-p9-12`(1)p9-12`(1)p9h12p9---------| 
G|-|-----------------------------------------------------------------| 
D|4|-----------------------------------------------------------------| 
A|-|-----------------------------------------------------------------| 
E| |---------------------------------------------------------12`(8)--+ 
 
  
  end solo          Interlude 
     &  &  4  &     1       a          1 a &   1 a &  1 a & 
E| |--------------+-19b(21)-19b(21)--+-------+-------+-------+ 
B|4|-12-17-19-17--|------------------|-------|-------|-------| 
G|-|--------------|------------------|-------|-------|-6-6-6-| 
D|4|--------------|------------------|-7-7-7-|-9-9-9-|-6-6-6-| 
A|-|--------------|------------------|-7-7-7-|-9-9-9-|-4-4-4-| 
E| |--------------+------------------+-5-5-5-+-7-7-7-+-------+ 
 
     1 a &   1 a &   1 a &             1234 
E| |-------+-------+-------+----------+-4t-+-----------+ 
B|4|-------|-------|-------|----------|-5t-|-----------| 
G|-|-------|-------|-------| {rest 1--|-4t-|-{hold for-| 
D|4|-9-9-9-|-7-7-7-|-9-9-9-|-measure}-|-6t-|--3 more---| 
A|-|-9-9-9-|-7-7-7-|-9-9-9-|----------|-4t-|-measures}-| 
E| |-7-7-7-+-5-5-5-+-7-7-7-+----------+----+-----------+ 
 
 
                 {NOW, REPEAT VERSE AND CHORUS} 
                 ^^^^^^^^^^^^^^^^^^^^^^^^^^^^^^ 
 
      Coda 
     1 a  & 
E| |----------+---------------+--------------------------+ 
B|4|------6t--|---------------|--------------------------| 
G|-|------6t--|-{hold 3 more--|--{about 16 measures------| 
D|4|------6t--|--measures}----|--of drums, adlib fills}--| 
A|-|-2-2--4t--|---------------|--------------------------| 
E| |-0-0------+---------------+--------------------------+ 
 
 
                  {NOW, PLAY INTRO TWICE} 
                  ^^^^^^^^^^^^^^^^^^^^^^^ 
 
     1 e & 
e| |---------+ 
B|4|---------| 
G|-|---------| the End! 
D|4|---------| 
A|-|-4h7-----| 
E| |-----4\--+ 
 
 
 
 
 
 
 
 
*ALTERNATE FILL - FOR 3RD TIME THRU VERSE ONLY! 
     1 e &  2 e &  3      & 
E| |-------------------------+ 
B|4|-------------------------| 
G|-|-6-6p4--6-6p4--6b(8)--4--| 
D|4|-------------------------| 
A|-|-------------------------| 
E| |-------------------------+ 
 
 
LYRICS: 
 
VERSE 1: 
A boy's own story, grows up to be a man. 
He catches the fall, he's given a second chance. 
Lightning flashes east to west. 
 
CHORUS: 
Love is falling on (pain), don't fall on me (pain). 
Don't fall on me (pain), don't fall on me. 
Love, fall on me. 
 
VERSE 2: 
Hand to hand, breath to breath. 
The boy to man, spirit and death. 
Lightning flashes east to west. 
 
REPEAT CHORUS 
 
REPEAT 2ND VERSE AND CHORUS 
 
Love, fall on me. 
I said, "Love, fall on me." 
 
 
 

		  

See also:

tabs Jeremy Camp - Stay tabs FFH - every now and then tabs Bleach - Chu-bura tabs Flatt & Scruggs - Dueling Banjos (lmofle Version) tabs MercyMe - i can only imagine tabs 12-Stones - Photograph
e-chords

Other versions:

tabs Fuel - Fall On Me tabs Heloisa Rosa - Fall on me tabs Kings X - fall on me
auto scroll beats size up size down change color hide chords drawings
tab show chords e-chords YouTube Clip e-chords hide all tabs e-chords go to top tab

share