Kings X

Burning Down

Kings X

tabs Beginner beginner

save to print version add songbook text version e-mail correct tuner
chordsukulelecavacokeyboardtabbassdrumsharmonicaflute Guitar Pro
close

there isn't a video lesson for this song

chords

Burning Down

	  		 
        Intro 
 
E-------------0-----0----------- 
B--------0----3-------3-----3--- 
G------2---2--2-----------2-----  Play twice 
D----2--------0----------------- 
A--0---------------------------- 
E----------------0------3------- 
 
 
        Verse 
 
E---------------------------------- 
B--------0--------------0---------- 
G------2---2---2------2---2-1---1--  Play three times 
D----2--------------2---------2---- 
A--0------------------------------- 
E------------2----3---------------- 
 
          "Where are you tonight ..." 
                             
E---------------------------------- 
B--------0--------------0---------- 
G------2---2---2------2---2--1--2-- 
D----2--------------2--------2--2-- 
A--0------------------------------- 
E------------2----3---------------- 
 
 
        Chorus 
 
E------------------------------------------------------------------ 
B------3-------3-----3-------3-------3-------3------3--------2-3--- 
G----2---2---------2---2-----------2---2----------0---0----2------- 
D--0--------------------------------------------------------------- 
A-----------4----2--------0------------------------------0--------- 
E-------------------------------3---------2-----0------------------ 
    "And my heart is ..." 
 
E------------------------------------------------------------------ 
B------3-------3-----3-------3-------2-------3------3--------2-3--- 
G----2---2---------2---2-----------2---2----------0---0----2------- 
D--0--------------------------------------------------------------- 
A-----------4----3--------2------------------------------0--------- 
E-------------------------------2---------3-----0------------------ 
     "If I could somehowe know ..." 
 
        Ending 
 
E-----------------------0--- 
B---------3--------2-------- 
G-------2---2--------2------  Play four times 
D-----0-------0------------- 
A---------------0----------- 
E--3------------------------ 
 
 
        Repeat from intro 
 
 
 

		  

See also:

tabs Jeremy Camp - Stay tabs FFH - every now and then tabs Bleach - Chu-bura tabs Flatt & Scruggs - Dueling Banjos (lmofle Version) tabs MercyMe - i can only imagine tabs 12-Stones - Photograph
e-chords

Other versions:

tabs Kings X - Burning Down tabs The Used - Burning Down The House
auto scroll beats size up size down change color hide chords drawings
tab show chords e-chords YouTube Clip e-chords hide all tabs e-chords go to top tab

share