Kim Larsen

home > Kim Larsen

Pianomand Tab

Kim Larsen

Difficulty: nolevelnolevel

by andrsouza

tuner correct add songbook print version text version save to e-mail
chordsukulelecavacokeyboardtabbassdrumsharmonicsflute Guitar Pro
chords

Pianomand

	  
 



Stav 1 

Første 3 noder spilles langsomt før rytmen fastsættes 
        C 
E|-----0--------------------------------------| 
B|-----------3-----1-----------1-----------1--| 
G|-----------------------0-----------0--------| 
D|--------------------------------------------| 
A|--3-----3-----3-----3-----3-----3-----3-----| 
E|--------------------------------------------| 


Stav 2        Gentag indtil 1. vers 

        C 
E|-----0-----------------------------------------------| 
B|-----------------3-----1-----------1-----------1-----| 
G|-----------0-----------------0-----------0-----------| 
D|-----------------------------------------------------| 
A|--3-----3-----3-----3-----3-----3-----3-----3--------| 
E|-----------------------------------------------------| 


Stav 3        "Stille blues..." 

        C                       F 
E|-------------------------------------------------------0--------------| 
B|-----------1-----------1-------------1-----------1-----------1--------| 
G|-----0-----------0-------------2-----------2-----------------------2--| 
D|--------------------------0h3-----3-----3-----3-----3-----3-----3-----| 
A|--3-----3-----3-----3-------------------------------------------------| 
E|----------------------------------------------------------------------| Direkte tilbage ind i stav 2 


Stav 4         Ligesom Stav 3, istedet for lille F, bruges normalt Em. 

        "Piano...               ...mand..." 
        C                       Em 
E|--------------------------|-----0-----------0--------| 
B|-----------1-----------1--|-----------0-----------0--| 
G|-----0-----------0--------|--------------------------| 
D|--------------------------|--------------------------| 
A|--3-----3-----3-----3-----|--2-----2-----2-----2-----| 
E|--------------------------|--------------------------|    Gentag Em indtil næste verslinje 


Stav 5 

    "Hvordan...           ...til...                         ...dø|des...  ...land" 
    F                       C                                     Em         Am 
E|------------------------------------------------------------------------------------------------------| 
B|-------------1-----------1-----------1-----------1-----------1-----------0-------------1-----------1--| 
G|-------2-----------2-----------0-----------0-----------0-----------0-------------2-----------2--------| 
D|--0h3-----3-----3-----3-----------------------------------------------------0h2-----2-----2-----2-----| 
A|----------------------------3-----3-----3-----3-----3-----3-----2-----2-------------------------------| 
E|------------------------------------------------------------------------------------------------------| 


Stav 6 

                "Det ved du..." 
    F 
E|----------------------------------------| 
B|-------------1-----------1-----------1--| 
G|-------2-----------2-----------2--------| 
D|--0h3-----3-----3-----3-----3-----3-----| 
A|----------------------------------------| 
E|----------------------------------------| 


Stav 7 

        "Pianomand..." 
        C 
E|-----0---------------------------------------------| 
B|-----------------3-----1-----------1-----------1---| 
G|-----------0-----------------0-----------0---------| 
D|---------------------------------------------------| 
A|--3-----3-----3-----3-----3-----3-----3-----3------| 
E|---------------------------------------------------| 

Resten af sangen er gentagelser. 


************************************ 

| h  Hammer-on 

************************************ 
	  

there isn't a video lesson for this song

request
Full key step upFull key step up
Half key step upHalf key step up
Half key step downHalf key step down
Full key step downFull key step down
Search
auto scroll beats size up size down change color hide chords drawings
tab show chords e-chords YouTube Clip e-chords hide all tabs e-chords go to top tab