KillSwitch Engage

Time Will Not Remain

KillSwitch Engage

tabs

by  EDSOOLIVEIRA

save to print version add songbook text version e-mail correct tuner
chordsukulelecavacokeyboardtabbassdrumsharmonicaflute Guitar Pro
close

there isn't a video lesson for this song

chords

Time Will Not Remain

	  		
Tuning: D G C F A D 



1 
----------------------------------------| 
--^---------10---12-------10-----^------| 
12-11---9-------------9--------12-11----| 
------9---9----9----9---9----9-------9--| 
----------------------------------------| 
----------------------------------------| 
      *   *    *    *   *    *       * 
2 
----------------------------------------| 
----------------------------------------| 
----------------------------------------| 
-7-9-------7---9------------------------| 
-5/7-------5---7\-----------------------| 
-----0-0-0---0--------------------------| 
     *   *   * 



1 
----------------------------------------| 
--^---------10---12-------10-----^------| 
12-11---9-------------9--------12-11----| 
------9---9----9----9---9----9-------9--| 
----------------------------------------| 
----------------------------------------| 
      *   *    *    *   *    *       * 
2 
----------------------------------------| 
----------------------------------------| 
----------------------------------------| 
-7-9-------7---9------------------------| 
-5/7-------5---7\-----------------------| 
-----0-0-0---0--------------------------| 
     *   *   * 



1 
-------------------------------------------__-----| 
---^------------------12------------------/  \----| 
-12-14----12----14----------12----14----14-12-11--| 
-------12----12----12----12----12----12-----------| 
--------------------------------------------------| 
--------------------------------------------------| 
        *     *     *     *     *     * 
2 
--------------------------------------------------| 
--------------------------------------------------| 
--------------------------------------------------| 
-5-7---7---7---7------7---------------------------| 
-3/5-5-5-5-5-5-5-5555-5---------------------------| 
--------------------------------------------------| 
     *   *   *   **** 



1 
-------------------------------------------__-----| 
---^------------------12------------------/  \----| 
-12-14----12----14----------12----14----14-12-11--| 
-------12----12----12----12----12----12-----------| 
--------------------------------------------------| 
--------------------------------------------------| 
        *     *     *     *     *     * 
2 
--------------------------------------------------| 
--------------------------------------------------| 
--------------------------------------------------| 
-4-4---4---4---4------5--------7------------------| 
-2-2-2-2-2-2-2-2-3333-3---5555-5------------------| 
--------------------------------------------------| 
     *   *   *   ****     **** 





0:09 


1 
----------------------------------------| 
--^---------10---12-------10-----^------| 
12-11---9-------------9--------12-11----| 
------9---9----9----9---9----9-------9--| 
----------------------------------------| 
----------------------------------------| 
      *   *    *    *   *    *       * 
2 
----------------------------------------| 
----------------------------------------| 
----------------------------------------| 
-7-9-------7---7-9----------------------| 
-5/7-------5---5/7----------------------| 
-----0-0-0---0-----0-000000000000-------| 
     *   *   *     * ************ 



1 
----------------------------------------| 
--^---------10---12-------10-----^------| 
12-11---9-------------9--------12-11----| 
------9---9----9----9---9----9-------9--| 
----------------------------------------| 
----------------------------------------| 
      *   *    *    *   *    *       * 
2 
----------------------------------------| 
----------------------------------------| 
----------------------------------------| 
-7-9-------7---7-9----------------------| 
-5/7-------5---5/7----------------------| 
-----0-0-0---0-----0-000000000000-------| 
     *   *   *     * ************ 






1 
-------------------------------------------__-----| 
---^------------------12------------------/  \----| 
-12-14----12----14----------12----14----14-12-11--| 
-------12----12----12----12----12----12-----------| 
--------------------------------------------------| 
--------------------------------------------------| 
        *     *     *     *     *     * 
2 
--------------------------------------------------| 
--------------------------------------------------| 
--------------------------------------------------| 
-5-7---7---7---7----------------------------------| 
-3/5-5-5-5-5-5-5-5555555555555555-----------------| 
--------------------------------------------------| 
     *   *   *   **************** 



1 
-------------------------------------------__-----| 
---^------------------12------------------/  \----| 
-12-14----12----14----------12----14----14-12-11--| 
-------12----12----12----12----12----12-----------| 
--------------------------------------------------| 
--------------------------------------------------| 
        *     *     *     *     *     * 
2 
--------------------------------------------------| 
--------------------------------------------------| 
--------------------------------------------------| 
-4----------------5--------7----------------------| 
-2-22222222222222-3-333333-5-555555---------------| 
--------------------------------------------------| 
   **************   ******   ****** 




0:19 



1 
----------------------------------------| 
--^---------10---12-------10-----^------| 
12-11---9-------------9--------12-11----| 
------9---9----9----9---9----9-------9--| 
----------------------------------------| 
----------------------------------------| 
      *   *    *    *   *    *       * 
2 
----------------------------------------| 
----------------------------------------| 
----------------------------------------| 
-7-9-------7---7-9----------------------| 
-5/7-------5---5/7----------------------| 
-----0-0-0---0-----0-000000000000-------| 
     *   *   *     * ************ 



1 
----------------------------------------| 
--^---------10---12-------10-----^------| 
12-11---9-------------9--------12-11----| 
------9---9----9----9---9----9-------9--| 
----------------------------------------| 
----------------------------------------| 
      *   *    *    *   *    *       * 
2 
----------------------------------------| 
----------------------------------------| 
----------------------------------------| 
-7-9-------7---7-9----------------------| 
-5/7-------5---5/7----------------------| 
-----0-0-0---0-----0-000000000000-------| 
     *   *   *     * ************ 






1 
-------------------------------------------__-----| 
---^------------------12------------------/  \----| 
-12-14----12----14----------12----14----14-12-11--| 
-------12----12----12----12----12----12-----------| 
--------------------------------------------------| 
--------------------------------------------------| 
        *     *     *     *     *     * 
2 
--------------------------------------------------| 
--------------------------------------------------| 
--------------------------------------------------| 
-5-7---7---7---7----------------------------------| 
-3/5-5-5-5-5-5-5-5555555555555555-----------------| 
--------------------------------------------------| 
     *   *   *   **************** 



1 
-------------------------------------------__-----| 
---^------------------12------------------/  \----| 
-12-14----12----14----------12----14----14-12-11--| 
-------12----12----12----12----12----12-----------| 
--------------------------------------------------| 
--------------------------------------------------| 
        *     *     *     *     *     * 
2 
--------------------------------------------------| 
--------------------------------------------------| 
--------------------------------------------------| 
-4----------------5--------P----------------------| 
-2-22222222222222-3-333333--S---------------------| 
------------------------------\-------------------| 
   **************   ******    






0:29 



------------------------------------------------------------------| 
------------------------------------------------------------------| 
------------------------------------------------------------------| 
-7-9-------7---7-9---------------7-9-------5-------7-----5---5-5--| 
-5/7-------5---5/7-----7-----5---5/7-------3---3/5---5\3---3-3-3--| 
-----0-3-0---0-----0-3---0-3---0-----0-3-0---0--------------------| 
     *   *   *     * *   * *   *     *   *   * 

------------------------------------------------------------------| 
------------------------------------------------------------------| 
------------------------------------------------------------------| 
-7-9-------7---7-9---------------7-9-------5-------7-----5---5-5--| 
-5/7-------5---5/7-----7-----5---5/7-------3---3/5---5\3---3-3-3--| 
-----0-3-0---0-----0-3---0-3---0-----0-3-0---0--------------------| 
     *   *   *     * *   * *   *     *   *   * 

------------------------------------------------------------------| 
------------------------------------------------------------------| 
------------------------------------------------------------------| 
-7-9-------7---7-9---------------7-9-------5-------7-----5---5-5--| 
-5/7-------5---5/7-----7-----5---5/7-------3---3/5---5\3---3-3-3--| 
-----0-3-0---0-----0-3---0-3---0-----0-3-0---0--------------------| 
     *   *   *     * *   * *   *     *   *   * 

------------------------------------------------------------------| 
------------------------------------------------------------------| 
------------------------------------------------------------------| 
-7-9-------7---7-9---------------7-9-------5-------7-----5---5-5--| 
-5/7-------5---5/7-----7-----5---5/7-------3---3/5---5\3---3-3-3--| 
-----0-3-0---0-----0-3---0-3---0-----0-3-0---0--------------------| 
     *   *   *     * *   * *   *     *   *   * 





0:47 

1 
---------------------------------------------------------------| 
---------------------------------------------------------------| 
---------------------------------------------------------------| 
---------------------------------------------------------------| 
-----------------------------------10---------------12---------| 
-000-0-0-0-0-000-0-0-0-0-00000000---8---------------10---------| 
 *** * * * * *** * * * * ********                     
2 
---------------------------------------------------------------| 
---------------------------------------------------------------| 
-------------------------------------------------------^-------| 
----------------------------------------9-----7-------7-9------| 
----------------------------------7-7-7---7-7---7-9-9----------| 
-000-0-0-0-0-000-0-0-0-0-00000000------------------------------| 
 *** * * * * *** * * * * ********   * *   * *   * * * 



1 
-----------------------------------------------------------------| 
-----------------------------------------------------------------| 
-----------------------------------16-16-----12--12-----14--14---| 
------------------------------------X--X------X---X------X--X----| 
-----------------------------------14-14-----10--10-----12--12---| 
-000-0-0-0-0-000-0-0-0-0-00000000--12-12-0-0--8---8-0-0-10--10---| 
 *** * * * * *** * * * * ********        * *        * * 
2 
-----------------------------------------------------------------| 
-----------------------------------------------------------------| 
-----------------------------------12--12------9--9-----11--11---| 
------------------------------------X---X------X--X------X---X---| 
-----------------------------------10--10------7--7------9---9---| 
-000-0-0-0-0-000-0-0-0-0-00000000---------0-0--------0-0---------| 
 *** * * * * *** * * * * ********         * *        * * 



1 
---------------------------------------------------------------| 
---------------------------------------------------------------| 
---------------------------------------------------------------| 
---------------------------------------------------------------| 
-----------------------------------10---------------12---------| 
-000-0-0-0-0-000-0-0-0-0-00000000---8---------------10---------| 
 *** * * * * *** * * * * ********                     
2 
---------------------------------------------------------------| 
---------------------------------------------------------------| 
-------------------------------------------------------^-------| 
----------------------------------------9-----7-------7-9------| 
----------------------------------7-7-7---7-7---7-9-9----------| 
-000-0-0-0-0-000-0-0-0-0-00000000------------------------------| 
 *** * * * * *** * * * * ********   * *   * *   * * * 


1 
-----------------------------------------------------------------| 
-----------------------------------------------------------------| 
-----------------------------------16-16-----12--12-----14--14---| 
------------------------------------X--X------X---X------X---X---| 
-----------------------------------14-14-----10--10-----12--12---| 
-000-0-0-0-0-000-0-0-0-0-00000000--12-12-0-0--8---8-0-0-10--10---| 
 *** * * * * *** * * * * ********        * *        * * 
2 
-----------------------------------------------------------------| 
-----------------------------------------------------------------| 
-----------------------------------12--12------9--9-----11--11---| 
------------------------------------X---X------X--X------X---X---| 
-----------------------------------10--10------7--7------9---9---| 
-000-0-0-0-0-000-0-0-0-0-00000000---------0-0--------0-0---------| 
 *** * * * * *** * * * * ********         * *        * * 





1:06 


1 
---------------------------------------------------------| 
---^-----------10---12---------^-----------10---12-------| 
-12-11---9---------------9---12-11---9---------------9---| 
-------9---9-9----9----9---9-------9---9-9----9----9---9-| 
---------------------------------------------------------| 
---------------------------------------------------------| 
       *   * *    *    *   *       *   * *    *    *   * 
2 
---------------------------------------------------------| 
---------------------------------------------------------| 
---------------------------------------------------------| 
-9----9--9----9--9--9--------9----9--9----9--9--9--------| 
-7----7--7----7--7--7--------7----7--7----7--7--7--------| 
-7----7--7----7--7--7--------7----7--7----7--7--7--------| 




1 
-------------------------------------------------------------------------| 
---^---------------------12---------------------------------12-----------| 
-12-14----12-------14----------12----14-------12-------14---------12-----| 
-------12----12-12----12----12----12----12-12----12-12----12---12----12--| 
-------------------------------------------------------------------------| 
-------------------------------------------------------------------------| 
        *     *  *     *     *     *     *  *     *  *     *    *     * 
2 
---------------------------------------------------------------| 
---------------------------------------------------------------| 
---------------------------------------------------------------| 
-4----4--4----4--4--4---------4----4--4----4--4--4-------------| 
-2----2--2----2--2--2---------2----2--2----2--2--2-------------| 
-2----2--2----2--2--2---------2----2--2----2--2--2-------------| 



1 
-------------------------------------------------------------------------| 
--------------------------12----------------------------------12---------| 
--14-------12-------14----------12----14-------12-------14---------12----| 
-----12-12----12-12----12----12----12----12-12----12-12----12---12----12-| 
-------------------------------------------------------------------------| 
-------------------------------------------------------------------------| 
      *  *     *  *     *     *     *     *  *     *  *     *    *     * 
2 
---------------------------------------------------------------| 
---------------------------------------------------------------| 
---------------------------------------------------------------| 
--------------------------------5----5----7--7--7--------------| 
-5----5--5----5--5--5-----------3----3----5--5--5--------------| 
-3----3--3----3--3--3-----------3----3-/--5--5--5--------------| 






1 
---------------------------------------------------------| 
---^-----------10---12---------^-----------10---12-------| 
-12-11---9---------------9---12-11---9---------------9---| 
-------9---9-9----9----9---9-------9---9-9----9----9---9-| 
---------------------------------------------------------| 
---------------------------------------------------------| 
       *   * *    *    *   *       *   * *    *    *   * 
2 
---------------------------------------------------------| 
---------------------------------------------------------| 
---------------------------------------------------------| 
-9----9--9----9--9--9--------9----9--9----9--9--9--------| 
-7----7--7----7--7--7--------7----7--7----7--7--7--------| 
-7----7--7----7--7--7--------7----7--7----7--7--7--------| 




1 
-------------------------------------------------------------------------| 
---^---------------------12---------------------------------12-----------| 
-12-14----12-------14----------12----14-------12-------14---------12-----| 
-------12----12-12----12----12----12----12-12----12-12----12---12----12--| 
-------------------------------------------------------------------------| 
-------------------------------------------------------------------------| 
        *     *  *     *     *     *     *  *     *  *     *    *     * 
2 
---------------------------------------------------------------| 
---------------------------------------------------------------| 
---------------------------------------------------------------| 
-4----4--4----4--4--4---------4----4--4----4--4--4-------------| 
-2----2--2----2--2--2---------2----2--2----2--2--2-------------| 
-2----2--2----2--2--2---------2----2--2----2--2--2-------------| 



1 
-------------------------------------------------------------------------| 
--------------------------12----------------------------------12---------| 
--14-------12-------14----------12----14-------12-------14---------12----| 
-----12-12----12-12----12----12----12----12-12----12-12----12---12----12-| 
-------------------------------------------------------------------------| 
-------------------------------------------------------------------------| 
      *  *     *  *     *     *     *     *  *     *  *     *    *     * 
2 
---------------------------------------------------------------| 
---------------------------------------------------------------| 
---------------------------------------------------------------| 
--------------------------------5----5----7--7--7--------------| 
-5----5--5----5--5--5-----------3----3----5--5--5--------------| 
-3----3--3----3--3--3-----------3----3-/--5--5--5--------------| 





1:27 



1 
---------------------------------------------------------------| 
---------------------------------------------------------------| 
---------------------------------------------------------------| 
---------------------------------------------------------------| 
-----------------------------------10---------------12---------| 
-000-0-0-0-0-000-0-0-0-0-00000000---8---------------10---------| 
 *** * * * * *** * * * * ********                     
2 
---------------------------------------------------------------| 
---------------------------------------------------------------| 
-------------------------------------------------------^-------| 
----------------------------------------9-----7-------7-9------| 
----------------------------------7-7-7---7-7---7-9-9----------| 
-000-0-0-0-0-000-0-0-0-0-00000000------------------------------| 
 *** * * * * *** * * * * ********   * *   * *   * * * 


1 
-----------------------------------------------------------------| 
-----------------------------------------------------------------| 
-----------------------------------16-16-----12--12-----14--14---| 
------------------------------------X--X------X---X------X--X----| 
-----------------------------------14-14-----10--10-----12--12---| 
-000-0-0-0-0-000-0-0-0-0-00000000--12-12-0-0--8---8-0-0-10--10---| 
 *** * * * * *** * * * * ********        * *        * * 
2 
-----------------------------------------------------------------| 
-----------------------------------------------------------------| 
-----------------------------------12--12------9--9-----11--11---| 
------------------------------------X---X------X--X------X---X---| 
-----------------------------------10--10------7--7------9---9---| 
-000-0-0-0-0-000-0-0-0-0-00000000---------0-0--------0-0---------| 
 *** * * * * *** * * * * ********         * *        * * 



1 
---------------------------------------------------------------| 
---------------------------------------------------------------| 
---------------------------------------------------------------| 
---------------------------------------------------------------| 
-----------------------------------10---------------12---------| 
-000-0-0-0-0-000-0-0-0-0-00000000---8---------------10---------| 
 *** * * * * *** * * * * ********                     
2 
---------------------------------------------------------------| 
---------------------------------------------------------------| 
-------------------------------------------------------^-------| 
----------------------------------------9-----7-------7-9------| 
----------------------------------7-7-7---7-7---7-9-9----------| 
-000-0-0-0-0-000-0-0-0-0-00000000------------------------------| 
 *** * * * * *** * * * * ********   * *   * *   * * * 


1 
-----------------------------------------------------------------| 
-----------------------------------------------------------------| 
-----------------------------------16-16-----12--12-----14--14---| 
------------------------------------X--X------X---X------X---X---| 
-----------------------------------14-14-----10--10-----12--12---| 
-000-0-0-0-0-000-0-0-0-0-00000000--12-12-0-0--8---8-0-0-10--10---| 
 *** * * * * *** * * * * ********        * *        * * 
2 
-----------------------------------------------------------------| 
-----------------------------------------------------------------| 
-----------------------------------12--12------9--9-----11--11---| 
------------------------------------X---X------X--X------X---X---| 
-----------------------------------10--10------7--7------9---9---| 
-000-0-0-0-0-000-0-0-0-0-00000000---------0-0--------0-0---------| 
 *** * * * * *** * * * * ********         * *        * * 





1:45 


1 
---------------------------------------------------------| 
---^-----------10---12---------^-----------10---12-------| 
-12-11---9---------------9---12-11---9---------------9---| 
-------9---9-9----9----9---9-------9---9-9----9----9---9-| 
---------------------------------------------------------| 
---------------------------------------------------------| 
       *   * *    *    *   *       *   * *    *    *   * 
2 
---------------------------------------------------------| 
---------------------------------------------------------| 
---------------------------------------------------------| 
-9----9--9----9--9--9--------9----9--9----9--9--9--------| 
-7----7--7----7--7--7--------7----7--7----7--7--7--------| 
-7----7--7----7--7--7--------7----7--7----7--7--7--------| 




1 
-------------------------------------------------------------------------| 
---^---------------------12---------------------------------12-----------| 
-12-14----12-------14----------12----14-------12-------14---------12-----| 
-------12----12-12----12----12----12----12-12----12-12----12---12----12--| 
-------------------------------------------------------------------------| 
-------------------------------------------------------------------------| 
        *     *  *     *     *     *     *  *     *  *     *    *     * 
2 
---------------------------------------------------------------| 
---------------------------------------------------------------| 
---------------------------------------------------------------| 
-4----4--4----4--4--4---------4----4--4----4--4--4-------------| 
-2----2--2----2--2--2---------2----2--2----2--2--2-------------| 
-2----2--2----2--2--2---------2----2--2----2--2--2-------------| 



1 
-------------------------------------------------------------------------| 
--------------------------12----------------------------------12---------| 
--14-------12-------14----------12----14-------12-------14---------12----| 
-----12-12----12-12----12----12----12----12-12----12-12----12---12----12-| 
-------------------------------------------------------------------------| 
-------------------------------------------------------------------------| 
      *  *     *  *     *     *     *     *  *     *  *     *    *     * 
2 
---------------------------------------------------------------| 
---------------------------------------------------------------| 
---------------------------------------------------------------| 
--------------------------------5----5----7--7--7--------------| 
-5----5--5----5--5--5-----------3----3----5--5--5--------------| 
-3----3--3----3--3--3-----------3----3-/--5--5--5--------------| 






1 
---------------------------------------------------------| 
---^-----------10---12---------^-----------10---12-------| 
-12-11---9---------------9---12-11---9---------------9---| 
-------9---9-9----9----9---9-------9---9-9----9----9---9-| 
---------------------------------------------------------| 
---------------------------------------------------------| 
       *   * *    *    *   *       *   * *    *    *   * 
2 
---------------------------------------------------------| 
---------------------------------------------------------| 
---------------------------------------------------------| 
-9----9--9----9--9--9--------9----9--9----9--9--9--------| 
-7----7--7----7--7--7--------7----7--7----7--7--7--------| 
-7----7--7----7--7--7--------7----7--7----7--7--7--------| 



1 
-------------------------------------------------------------------------| 
---^---------------------12---------------------------------12-----------| 
-12-14----12-------14----------12----14-------12-------14---------12-----| 
-------12----12-12----12----12----12----12-12----12-12----12---12----12--| 
-------------------------------------------------------------------------| 
-------------------------------------------------------------------------| 
        *     *  *     *     *     *     *  *     *  *     *    *     * 
2 
---------------------------------------------------------------| 
---------------------------------------------------------------| 
---------------------------------------------------------------| 
-4----4--4----4--4--4---------4----4--4----4--4--4-------------| 
-2----2--2----2--2--2---------2----2--2----2--2--2-------------| 
-2----2--2----2--2--2---------2----2--2----2--2--2-------------| 



1 
-------------------------------------------------------------------------| 
--------------------------12----------------------------------12---------| 
--14-------12-------14----------12----14-------12-------14---------12----| 
-----12-12----12-12----12----12----12----12-12----12-12----12---12----12-| 
-------------------------------------------------------------------------| 
-------------------------------------------------------------------------| 
      *  *     *  *     *     *     *     *  *     *  *     *    *     * 
2 
---------------------------------------------------------------| 
---------------------------------------------------------------| 
---------------------------------------------------------------| 
--------------------------------5----5----7--7--7--------------| 
-5----5--5----5--5--5-----------3----3----5--5--5--------------| 
-3----3--3----3--3--3-----------3----3-/--5--5--5--------------| 







2:07 



1   _ 
---/ \--------------------------------------------------------------| 
--7-8-7---5-----5---------------------------------------------------| 
--------5---5-4---4---4-----5---4-----------------------------------| 
--------------------5---5-7---5-----5-----4-----5-----5-----5---5---| 
----------------------------------7---7-5---5-3---3-2---2-----------| 
----------------------------------------------------------3---0-----| 
        *   * *   * *   * *   *   *           *           *   * 
2 
--------------------------------------------------------------------| 
--------------------------------------------------------------------| 
---------------------------------7------7-----5-----5---------------| 
-2-2-----------------------------5------5-----3-----2---5---2-------| 
-0-0----------------------------------------------------3---0-------| 
 * * 
    


1   _ 
---/ \--------------------------------------------------------------| 
--7-8-7---5-----5---------------------------------------------------| 
--------5---5-4---4---4-----5---4-----------------------------------| 
--------------------5---5-7---5-----5-----4-----5-----5-----5---5---| 
----------------------------------7---7-5---5-3---3-2---2-----------| 
----------------------------------------------------------3---0-----| 
        *   * *   * *   * *   *   *           *           *   * 
2 
--------------------------------------------------------------------| 
--------------------------------------------------------------------| 
---------------------------------7------7-----5-----5---------------| 
-2-2-----------------------------5------5-----3-----2---5---2-------| 
-0-0----------------------------------------------------3---0-------| 
 * * 
    


1   _ 
---/ \--------------------------------------------------------------| 
--7-8-7---5-----5---------------------------------------------------| 
--------5---5-4---4---4-----5---4-----------------------------------| 
--------------------5---5-7---5-----5-----4-----5-----5-----5---5---| 
----------------------------------7---7-5---5-3---3-2---2-----------| 
----------------------------------------------------------3---0-----| 
        *   * *   * *   * *   *   *           *           *   * 

H   __ 
---/  \----------------------------------------------------------------| 
-10-12-10---10-----8---------------------------------------------------| 
----------9----9-7---7---7------9---7----------------------------------| 
-----------------------9---9-10---9------9------9---9-----9-----9---9--| 
--------------------------------------10---10-9---7---7-5---5----------| 
--------------------------------------------------------------7---0----| 
          *    * *   * *   *  *   *                     *     *   * 
RYTHM 
--------------------------------------------------------------------| 
--------------------------------------------------------------------| 
---------------------------------7------7-----5-----5---------------| 
-2-2-----------------------------5------5-----3-----2---5---2-------| 
-0-0----------------------------------------------------3---0-------| 
 * * 
    



1   _ 
---/ \--------------------------------------------------------------| 
--7-8-7---5-----5---------------------------------------------------| 
--------5---5-4---4---4-----5---4-----------------------------------| 
--------------------5---5-7---5-----5-----4-----5-----5-----5---5---| 
----------------------------------7---7-5---5-3---3-2---2-----------| 
----------------------------------------------------------3---0-----| 
        *   * *   * *   * *   *   *           *           *   * 

H   __ 
---/  \----------------------------------------------------------------| 
-10-12-10---10-----8---------------------------------------------------| 
----------9----9-7---7---7------9---7----------------------------------| 
-----------------------9---9-10---9------9------9---9-----9-----9---9--| 
--------------------------------------10---10-9---7---7-5---5----------| 
--------------------------------------------------------------7---0----| 
          *    * *   * *   *  *   *                     *     *   * 
RYTHM 
--------------------------------------------------------------------| 
--------------------------------------------------------------------| 
---------------------------------7------7-----5-----5---------------| 
-2-2-----------------------------5------5-----3-----2---5---2-------| 
-0-0----------------------------------------------------3---0-------| 
 * * 
    






2:26 

1 
------------------------------------------------12--12---)~~~--| 
----------------------------------------------12--12---15------| 
--------------------------------12----------12-----------------| 
-----9------7-----9-----12------12----12/14--------------------| 
-5/7---7\5----5/7---7/9----9/10----10--------------------------| 
---------------------------------------------------------------| 
                                             * * 

2 
---------------------------------------------------------------| 
---------------------------------------------------------------| 
---------------------------------------------------------------| 
-7-9-------7---7-9----------------7------7-----5-----5---------| 
-5/7-------5---5/7----------------5------5-----3-----2---5-----| 
-----0-0-0---0-----0-0-0-000-0-0-------------------------3---0-| 
     *   *   *     * * * *** * * 





2:30 
                                                  2 step________ 
                                                        )   |  ( 
---)-------------------------------------12--14--15---15---15---~~~--| 
-15-----)-15---)-15-(------------------12--12--12---12---------------| 
-14---14-----14-----14-/12-14-12-11-12-------------------------------| 
---------------------------------------------------------------------| 
---------------------------------------------------------------------| 
---------------------------------------------------------------------| 

2 
---------------------------------------------------------------| 
---------------------------------------------------------------| 
---------------------------------------------------------------| 
-7-9-------7---7-9----------------7------7-----5-----5---------| 
-5/7-------5---5/7----------------5------5-----3-----2---5-----| 
-----0-0-0---0-----0-0-0-000-0-0-------------------------3---0-| 
     *   *   *     * * * *** * * 

2:36 

1 
-15-12-------15-12-15-12-------15-12-15-12--------| 
-------15-12-------------15-12-------------15-12--| 
--------------------------------------------------| 
--------------------------------------------------| 
--------------------------------------------------| 
--------------------------------------------------| 

1 
-17-12-----15-12-----14-12-----15-12--------| 
------15-12-----15-12-----15-12------15-12--| 
--------------------------------------------| 
--------------------------------------------| 
--------------------------------------------| 
--------------------------------------------| 

1 
------------------------------------------------------| 
-15-12------------------------------------------------| 
-------14-12-14-12-------14--12~----------------------| 
-------------------14-12---------14-12-7--------------| 
-----------------------------------------10-7-5-7~----| 
------------------------------------------------------| 

2 
---------------------------------------------------------------| 
---------------------------------------------------------------| 
---------------------------------------------------------------| 
-7-9-------7---7-9----------------7------7-----5-----5---------| 
-5/7-------5---5/7----------------5------5-----3-----2---5-----| 
-----0-0-0---0-----0-0-0-000-0-0-------------------------3---0-| 
     *   *   *     * * * *** * * 


2:40 
1 
----------------------------------------------------------------17-19-20-| 
----------------------------------------------17-19-20-17-19-20----------| 
----------------------------16-17-19-16-17-19----------------------------| 
----------16-17-19-16-17-19----------------------------------------------| 
-15-17-19----------------------------------------------------------------| 
-------------------------------------------------------------------------| 
  *  *  *  *  *  * 

1 
  2 step 
   ________ 
   )   |  (               ) 
-20---20---------19~~---19----19~~~------| 
-------------17--------------------------| 
-----------------------------------------| 
-----------------------------------------| 
-----------------------------------------| 
-----------------------------------------| 

2 
---------------------------------------------------------------| 
---------------------------------------------------------------| 
---------------------------------------------------------------| 
-7-9-------7---7-9----------------7------7-----5-----5---------| 
-5/7-------5---5/7----------------5------5-----3-----2---5-----| 
-----0-0-0---0-----0-0-0-000-0-0-------------------------3---0-| 
     *   *   *     * * * *** * * 






2:45 


1 
---------------------------------------------------------| 
---^-----------10---12---------^-----------10---12-------| 
-12-11---9---------------9---12-11---9---------------9---| 
-------9---9-9----9----9---9-------9---9-9----9----9---9-| 
---------------------------------------------------------| 
---------------------------------------------------------| 
       *   * *    *    *   *       *   * *    *    *   * 
2 
---------------------------------------------------------| 
---------------------------------------------------------| 
---------------------------------------------------------| 
-9-------------------------------------------------------| 
-7-------------------------------------------------------| 
-7-------------------------------------------------------| 




1 
-------------------------------------------------------------------------| 
---^---------------------12---------------------------------12-----------| 
-12-14----12-------14----------12----14-------12-------14---------12-----| 
-------12----12-12----12----12----12----12-12----12-12----12---12----12--| 
-------------------------------------------------------------------------| 
-------------------------------------------------------------------------| 
        *     *  *     *     *     *     *  *     *  *     *    *     * 
2 
---------------------------------------------------------------| 
---------------------------------------------------------------| 
---------------------------------------------------------------| 
-4----------------------------4--------------------------------| 
-2----------------------------2--------------------------------| 
-2----------------------------2--------------------------------| 



1 
-------------------------------------------------------------------------| 
--------------------------12----------------------------------12---------| 
--14-------12-------14----------12----14-------12-------14---------12----| 
-----12-12----12-12----12----12----12----12-12----12-12----12---12----12-| 
-------------------------------------------------------------------------| 
-------------------------------------------------------------------------| 
      *  *     *  *     *     *     *     *  *     *  *     *    *     * 
2 
---------------------------------------------------------------| 
---------------------------------------------------------------| 
---------------------------------------------------------------| 
--------------------------------5----5----7--7--7--------------| 
-5----5--5----5--5--5-----------3----3----5--5--5--------------| 
-3----3--3----3--3--3-----------3----3-/--5--5--5--------------| 








1 
---------------------------------------------------------| 
---^-----------10---12---------^-----------10---12-------| 
-12-11---9---------------9---12-11---9---------------9---| 
-------9---9-9----9----9---9-------9---9-9----9----9---9-| 
---------------------------------------------------------| 
---------------------------------------------------------| 
       *   * *    *    *   *       *   * *    *    *   * 
2 
---------------------------------------------------------| 
---------------------------------------------------------| 
---------------------------------------------------------| 
-9----9--9----9--9--9--------9----9--9----9--9--9--------| 
-7----7--7----7--7--7--------7----7--7----7--7--7--------| 
-7----7--7----7--7--7--------7----7--7----7--7--7--------| 




1 
-------------------------------------------------------------------------| 
---^---------------------12---------------------------------12-----------| 
-12-14----12-------14----------12----14-------12-------14---------12-----| 
-------12----12-12----12----12----12----12-12----12-12----12---12----12--| 
-------------------------------------------------------------------------| 
-------------------------------------------------------------------------| 
        *     *  *     *     *     *     *  *     *  *     *    *     * 
2 
---------------------------------------------------------------| 
---------------------------------------------------------------| 
---------------------------------------------------------------| 
-4----4--4----4--4--4---------4----4--4----4--4--4-------------| 
-2----2--2----2--2--2---------2----2--2----2--2--2-------------| 
-2----2--2----2--2--2---------2----2--2----2--2--2-------------| 



1 
-------------------------------------------------------------------------| 
--------------------------12----------------------------------12---------| 
--14-------12-------14----------12----14-------12-------14---------12----| 
-----12-12----12-12----12----12----12----12-12----12-12----12---12----12-| 
-------------------------------------------------------------------------| 
-------------------------------------------------------------------------| 
      *  *     *  *     *     *     *     *  *     *  *     *    *     * 
2 
---------------------------------------------------------------| 
---------------------------------------------------------------| 
---------------------------------------------------------------| 
--------------------------------5----5----7--7--7--------------| 
-5----5--5----5--5--5-----------3----3----5--5--5--------------| 
-3----3--3----3--3--3-----------3----3-/--5--5--5--------------| 





1 
---------------------------------------------------------| 
---^-----------10---12---------^-----------10---12-------| 
-12-11---9---------------9---12-11---9---------------9\--| 
-------9---9-9----9----9---9-------9---9-9----9----9-----| 
---------------------------------------------------------| 
---------------------------------------------------------| 
       *   * *    *    *   *       *   * *    *    *    
2 
---------------------------------------------------------| 
---------------------------------------------------------| 
---------------------------------------------------------| 
-9----------------------------------------------------9--| 
-7----------------------------------------------7--7--7\-| 
-7----------------------------------------------7--7--7\-| 
                                                *  * 
		  

See also:

tabs Fall Out Boy - Beat It tabs Bad Religion - American Jesus tabs Afi - Miss murder tabs Green Day - Holiday ( Easy Version) tabs Green Day - Time of your life (good ridance) tabs Blink 182 - Stay together for the kids (ver. 2)
e-chords

Other versions:

tabs KillSwitch Engage - Time Will Not Remain
auto scroll beats size up size down change color hide chords drawings
tab show chords e-chords YouTube Clip e-chords hide all tabs e-chords go to top tab

share