KillSwitch Engage

Numb Sickened Eyes

KillSwitch Engage

tabs

by  EDSOOLIVEIRA

save to print version add songbook text version e-mail correct tuner
chordsukulelecavacokeyboardtabbassdrumsharmonicaflute Guitar Pro
close

there isn't a video lesson for this song

chords

Numb Sickened Eyes

	  		

Tuning: D A D G B e 

 
e||---------------------------------------------|| 
B||---------------------------------------------|| 
G||---------------------------------------------|| 
D||--------6---------4---------6---------3-5-6--|| 
A||--------6---------4---------6---------3-5-6--|| 
D||-0-0-0--6--0-0-0--4--0-0-0--6--0-0-0--3-5-6--|| 




 
e||------------------------------------|| 
B||------------------------------------|| 
G||------------------------------------|| 
D||--------6---------4---3-5-6--2-3-5--|| 
A||--------6---------4---3-5-6--2-3-5--|| 
D||-0-0-0--6--0-0-0--4---3-5-6--2-3-5--|| 


 
		  

See also:

tabs Fall Out Boy - Beat It tabs Bad Religion - American Jesus tabs Afi - Miss murder tabs Green Day - Holiday ( Easy Version) tabs Green Day - Time of your life (good ridance) tabs Blink 182 - Stay together for the kids (ver. 2)
e-chords

Other versions:

tabs KillSwitch Engage - Numb Sickened Eyes
auto scroll beats size up size down change color hide chords drawings
tab show chords e-chords YouTube Clip e-chords hide all tabs e-chords go to top tab

share