KillSwitch Engage

No End In Sight

KillSwitch Engage

tabs

by  CARLLUZ

save to print version add songbook text version e-mail correct tuner
chordsukulelecavacokeyboardtabbassdrumsharmonicaflute Guitar Pro
close

there isn't a video lesson for this song

chords

No End In Sight

	  		

Tuning: C G C F A D 
 



1 
----------------------------------------------5-------------| 
----------------------------------------------5-------------| 
----------------------------------------------7-------------| 
-0----------------------------------0---------7-------------| 
-0----/8-7~--5-7-\--------3--5-3-5--0---------5-------------| 
-0------------------3-5-------------0---------0-------------| 

2 
------------------------------------------------------------| 
------------------------------------------------------------| 
------------------------------------------------------------| 
-0----------------------------------0-----------------------| 
-0----------------------------------0-----------------------| 
-0----------------------------------0-----------------------| 




1 
----------------------------------------------5------------------------| 
----------------------------------------------5------------------------| 
----------------------------------------------7------------------------| 
-0----------------------------------0---------7------------3-----------| 
-0----/8-7~--5-7-\--------3--5-3-5--0---------5------------1-----1-1---| 
-0------------------3-5-------------0---------0--------0-0---0-0-1-1---| 
                                                       * *   * * 
2 
-----------------------------------------------------------------------| 
-----------------------------------------------------------------------| 
-----------------------------------------------------------------------| 
-0----------------------------------0----------------------3-----------| 
-0----------------------------------0----------------------1-----1-1---| 
-0----------------------------------0------------------0-0---0-0-1-1---| 
                                                       * *   * * 





0:16 


1 
-----------------------------------------------------------------| 
-----------------------------------------------------------------| 
-----/14-12~--10-12-\-------9--10-9-10--10~-----14~----12~---9~--| 
-0---------------------7-8---------------------------------------| 
-0---------------------------------------------------------------| 
-0---------------------------------------------------------------| 

2  
-----------------------------------------------------------------| 
-----------------------------------------------------------------| 
-----/10--9~---7--9-\-------5---7-5-7---7~------10~-----9~---5~--| 
-0---------------------3-5---------------------------------------| 
-0---------------------------------------------------------------| 
-0---------------------------------------------------------------| 

RYTHM 
-----------------------------------------------------------------| 
-----------------------------------------------------------------| 
-----------------------------------------------------------------| 
-0--------------------------------------3----------------5-------| 
-0--------------------------------------1----------------3-------| 
-0---------------------------------------------------------------| 




1 
--------------------------------------------------------------------------| 
--------------------------------------------------------------------------| 
-----/14-12~--10-12-\-------9--10-9-10--10~-----14~----12~----------------| 
-0---------------------7-8---------------------------------------3--------| 
-0---------------------------------------------------------------1-----1-1| 
-0-----------------------------------------------------------0-0---0-0-1-1| 
                                                             * *   * *  
2  
--------------------------------------------------------------------------| 
--------------------------------------------------------------------------| 
-----/10--9~---7--9-\-------5---7-5-7---7~------10~-----9~----------------| 
-0---------------------3-5---------------------------------------3--------| 
-0---------------------------------------------------------------1-----1-1| 
-0-----------------------------------------------------------0-0---0-0-1-1| 
                                                             * *   * * 
RYTHM 
------------------------------------------------------------| 
------------------------------------------------------------| 
------------------------------------------------------------| 
-0--------------------------------------3----------------5--| 
-0--------------------------------------1----------------3--| 
-0----------------------------------------------------------| 






0:32 


1 
---------------------------------------------------------------------------| 
---------------------------------------------------------------------------| 
---------------------------------------------------------------------------| 
-------------------3-3-----------------------------------5-5-----3-3-7-----| 
0--7-5-7-0--7------1-1-3-3-1-1-5------0--7-5-7-0--7------3-3-1-1-1-1/5-----| 
0--7-5-7-0--7-0000-----3-3-1-1/5-0000-0--7-5-7-0--7-0000-----1-1-------0000| 
              ****               ****               ****               **** 
2 
---------------------------------------------------------------------------| 
----------------------------FEEDBACK*--------------------------------------| 
---------------------------------------------------------------------------| 
----------------------------------------------------------------------P----| 
-----------------------------------------------------------------------S---| 
------------------------------------------------------------------------\--| 



1 
---------------------------------------------------------------------------| 
---------------------------------------------------------------------------| 
---------------------------------------------------------------------------| 
-------------------3-3-----------------------------------5-5-----3-3-7-----| 
0--7-5-7-0--7------1-1-3-3-1-1-5------0--7-5-7-0--7------3-3-1-1-1-1/5-----| 
0--7-5-7-0--7-0000-----3-3-1-1/5-0000-0--7-5-7-0--7-0000-----1-1-------0000| 
              ****               ****               ****               **** 

2 
---------------------------------------------------------------------------| 
---------------------------------------------------------------------------| 
---------------------------------------------------------------------------| 
0---------------------------------------------------------------------P----| 
0----------------------------------------------------------------------S---| 
0-----------------------------------------------------------------------\--| 






0:48 


B 
---------------------------------------------------------------------------| 
---------------------------------------------------------------------------| 
---------------------------------------------------------------------------| 
-------------------3-3-----------------------------------5-5-----3-3-7-----| 
0--7-5-7-0--7------1-1-3-3-1-1-5------0--7-5-7-0--7------3-3-1-1-1-1/5-----| 
0--7-5-7-0--7-0000-----3-3-1-1/5-0000-0--7-5-7-0--7-0000-----1-1-------0000| 
              ****               ****               ****               **** 

---------------------------------------------------------------------------| 
---------------------------------------------------------------------------| 
---------------------------------------------------------------------------| 
-------------------3-3-----------------------------------5-5-----3-3-7-----| 
0--7-5-7-0--7------1-1-3-3-1-1-5------0--7-5-7-0--7------3-3-1-1-1-1/5--\--| 
0--7-5-7-0--7-0000-----3-3-1-1/5-0000-0--7-5-7-0--7-0000-----1-1--------\--| 
              ****               ****               ****                





1:04 


B 
------------------------------------------------------------------| 
------------------------------------------------------------------| 
------------------------------------------------------------------| 
----------------------------------------------------3-3-3-3-5-5---| 
---------------------1-1-1-1--------3-3-3-3-----------------------| 
-0-0-0-0-0-0-1-1-1-1--------3-3-3-3---------0-0-0-0---------------| 



L 
--------------------------------------------------------------------_---| 
--------------------------------------------------------_-----_----/ \--| 
--------------------------------------------------_----/ \---/ \--0-9-10| 
-------------------------------------------------/ \--0-7-8-0-7-8-------| 
---------------------1-1-1-1--------3-3-3-3-----0-7-8-------------------| 
-0-0-0-0-0-0-1-1-1-1--------3-3-3-3---------0-0-------------------------| 

R 
--------------------------------------------------------------------_---| 
--------------------------------------------------------_-----_----/ \--| 
--------------------------------------------------_----/ \---/ \--0-5-7-| 
-------------------------------------------------/ \--0-3-5-0-3-5-------| 
---------------------1-1-1-1--------3-3-3-3-----0-3-5-------------------| 
-0-0-0-0-0-0-1-1-1-1--------3-3-3-3---------0-0-------------------------| 



B 
------------------------------------------------------------------| 
------------------------------------------------------------------| 
------------------------------------------------------------------| 
----------------------------------------------------3-3-3-3-5-5---| 
---------------------1-1-1-1--------3-3-3-3-----------------------| 
-0-0-0-0-0-0-1-1-1-1--------3-3-3-3---------0-0-0-0---------------| 


---------------------------------------------------------| 
---------------------------------------------------------| 
---------------------------------------------------------| 
---------------------------------------------------------| 
---------------------1-1-1-1--------3-3-3-3-----000-000--| 
-0-0-0-0-0-0-1-1-1-1--------3-3-3-3---------0-0-000-000--| 
                                                *** *** 






1:20 



1 
--------------------------------------------------------------5-| 
--------------------------------------------------------------5-| 
--------/14-12~--10-12-\-------9--10-9-10---------3-----------7-| 
-0--0---------------------7-8--------------3--3-3-3----5--5-5-7-| 
-0--0--------------------------------------1--1-1-1----3--3-3-5-| 
-0--0-----------------------------------------------------------| 

2  
--------------------------------------------------------------5-| 
--------------------------------------------------------------5-| 
--------/10--9~---7--9-\-------5---7-5-7----------3-----------7-| 
-0--0---------------------3-5--------------3--3-3-3----5--5-5-7-| 
-0--0--------------------------------------1--1-1-1----3--3-3-5-| 
-0--0-----------------------------------------------------------| 


1 
--------------------------------------------------------------------------| 
--------------------------------------------------------------------------| 
--------/14-12~--10-12-\-------9--10-9-10---------3-----------------------| 
-0--0---------------------7-8--------------3--3-3-3----5--5-----3---------| 
-0--0--------------------------------------1--1-1-1----3--3-----1-----1-1-| 
-0--0-------------------------------------------------------0-0---0-0-1-1-| 
                                                            * *   * * 
2  
--------------------------------------------------------------------------| 
--------------------------------------------------------------------------| 
--------/10--9~---7--9-\-------5---7-5-7----------3-----------------------| 
-0--0---------------------3-5--------------3--3-3-3----5--5-----3---------| 
-0--0--------------------------------------1--1-1-1----3--3-----1-----1-1-| 
-0--0-------------------------------------------------------0-0---0-0-1-1-| 
                                                            * *   * * 





1:36 


B 
---------------------------------------------------------------------------| 
---------------------------------------------------------------------------| 
---------------------------------------------------------------------------| 
-------------------3-3-----------------------------------5-5-----3-3-7-----| 
0--7-5-7-0--7------1-1-3-3-1-1-5------0--7-5-7-0--7------3-3-1-1-1-1/5-----| 
0--7-5-7-0--7-0000-----3-3-1-1/5-0000-0--7-5-7-0--7-0000-----1-1-------0000| 
              ****               ****               ****               **** 

---------------------------------------------------------------------------| 
---------------------------------------------------------------------------| 
---------------------------------------------------------------------------| 
-------------------3-3-----------------------------------5-5-----3-3-7-----| 
0--7-5-7-0--7------1-1-3-3-1-1-5------0--7-5-7-0--7------3-3-1-1-1-1/5--\--| 
0--7-5-7-0--7-0000-----3-3-1-1/5-0000-0--7-5-7-0--7-0000-----1-1--------\--| 
              ****               ****               ****                





1:52 




B 
------------------------------------------------------------------| 
------------------------------------------------------------------| 
------------------------------------------------------------------| 
----------------------------------------------------3-3-3-3-5-5---| 
---------------------1-1-1-1--------3-3-3-3-----------------------| 
-0-0-0-0-0-0-1-1-1-1--------3-3-3-3---------0-0-0-0---------------| 


---------------------------------------------------------| 
---------------------------------------------------------| 
---------------------------------------------------------| 
---------------------------------------------------------| 
---------------------1-1-1-1--------3-3-3-3-----000-000--| 
-0-0-0-0-0-0-1-1-1-1--------3-3-3-3---------0-0-000-000--| 
                                                *** *** 

--------------------------------------------------------------------_---| 
--------------------------------------------------------_-----_----/ \--| 
--------------------------------------------------_----/ \---/ \--0-5-7-| 
-------------------------------------------------/ \--0-3-5-0-3-5-------| 
---------------------1-1-1-1--------3-3-3-3-----0-3-5-------------------| 
-0-0-0-0-0-0-1-1-1-1--------3-3-3-3---------0-0-------------------------| 







2:08 

1 
--------------------------------------------------------------5-| 
--------------------------------------------------------------5-| 
--------/14-12~--10-12-\-------9--10-9-10---------3-----------7-| 
-0--0---------------------7-8--------------3--3-3-3----5--5-5-7-| 
-0--0--------------------------------------1--1-1-1----3--3-3-5-| 
-0--0-----------------------------------------------------------| 

2  
--------------------------------------------------------------5-| 
--------------------------------------------------------------5-| 
--------/10--9~---7--9-\-------5---7-5-7----------3-----------7-| 
-0--0---------------------3-5--------------3--3-3-3----5--5-5-7-| 
-0--0--------------------------------------1--1-1-1----3--3-3-5-| 
-0--0-----------------------------------------------------------| 





1 
-----------------------------------------------------------------------| 
-----------------------------------------------------------------------| 
--------/14-12~--10-12-\-------9--10-9-10---------3--------------------| 
-0--0---------------------7-8--------------3--3-3-3----5--5-5-5-5-5-5-5| 
-0--0--------------------------------------1--1-1-1----3--3-3-3-3-3-3-3| 
-0--0------------------------------------------------------------------| 
                                                          * * * * * * *  
2  
-----------------------------------------------------------------------| 
-----------------------------------------------------------------------| 
--------/10--9~---7--9-\-------5---7-5-7----------3--------------------| 
-0--0---------------------3-5--------------3--3-3-3----5--5-5-5-5-5-5-5| 
-0--0--------------------------------------1--1-1-1----3--3-3-3-3-3-3-3| 
-0--0------------------------------------------------------------------| 
                                                          * * * * * * *  






2:25 


B 
------------------------------------------------------| 
------------------------------------------------------| 
------------------------------------------------------| 
-7-7-7--------3---5---------7-7-7--------3---8-8------| 
-5-5-5\---3---1---3---1---/-5-5-5\---3---1---6-6------| 
----------3-0---0---0-1---/----------3-0---0-----0-0--| 
            *   *   *                  *   *     * * 


1 
-----------------------------------------------------| 
-----------------------------------------------------| 
-----------------------------------------------------| 
-7-7-7--------3--------------------------------------| 
-5-5-5\---3---1---/6--5~--------/6--5~--------/6--5~-| 
----------3-0---0--------8--8-8--------6--6-6--------| 
            *   *  
2 
-----------------------------------------------------| 
-----------------------------------------------------| 
-----------------------------------------------------| 
-0---------------------------------------------------| 
-0---------------/6--5~--------/6--5~--------/6--5~--| 
-0----------------------8--8-8--------6--6-6---------| 




2:40 


B 
-----------------------------------------------------| 
-----------------------------------------------------| 
-----------------------------------------------------| 
-7-7-7--------3---5---------7-7-7--------3---8-8-----| 
-5-5-5\---3---1---3---1---/-5-5-5\---3---1---6-6-----| 
----------3-0---0---0-1---/----------3-0---0-----0-0-| 
            *   *   *                  *   *     * * 

-----------------------------------------------------| 
-----------------------------------------------------| 
-----------------------------------------------------| 
-7-7-7--------3-----------------------------------SPH| 
-5-5-5\---3---1---/6--5~--------/6--5~--------/6--5~-| 
----------3-0---0--------8--8-8--------6--6-6--------| 
            *   *  




2:56 


--------------------------------------------------------------------------| 
--------------------------------------------------------------------------| 
--------------------------------------------------------------------------| 
-7-7-7----------------3----5----------7-7-7-----------------3----8--------| 
-5-5-5\--000-000-3-00-1-00-3-00-1-----5-5-5\--000-0000-3-00-1-00-6-000000-| 
---------000-000-3-00---00---00-1---/---------000-0000-3-00---00---000000-| 
         *** ***   **   **   **               *** ****   **   **   ****** 


---------------------------------------------------------------| 
---------------------------------------------------------------| 
---------------------------------------------------------------| 
-7-7-7----------------3-------SPH-----------PH------------SPH--| 
-5-5-5\--000-000-3-00-1-00-/6--5~--------/6--5~--------/6--5~--| 
---------000-000-3-00---00--------8--8-8--------6--6-6---------| 
         *** ***   **   **    





3:12 


----------------------------------------| 
----------------------------------------| 
------------------------------------^---| 
--------3--------5-----3-3-3-3-3-3-3-5--| 
-0----0-1-0------3--0-------------------| 
-0----0---0---------0-------------------| 
 *    *   *         * 


----------------------------------------| 
----------------------------------------| 
------------------------------------^---| 
--------3--------5-----3-3-3-3-3-3-3-5--| 
-0----0-1-0------3--0-------------------| 
-0----0---0---------0-------------------| 
 *    *   *         * 



1 
----------------------------------------| 
----------------------------------------| 
------------------------------------^---| 
--------3--------5-----3-3-3-3-3-3-3-5--| 
-0----0-1-0------3--0-------------------| 
-0----0---0---------0-------------------| 
 *    *   *         * 

OD 1 
----------------------------------------| 
----------------------------------------| 
/14-12~--10-12-\-------9--10-9-10-------| 
-----------------7-8--------------------| 
----------------------------------------| 
----------------------------------------| 

OD 2 
-----------------------------------------| 
-----------------------------------------| 
/10--9~---7--9-\-------5---7-5-7---------| 
-----------------3-5---------------------| 
-----------------------------------------| 
-----------------------------------------| 




1 
----------------------------------------| 
----------------------------------------| 
----------------------------------------| 
--------3--------5-----5-5-5-5-5-5-5-7--| 
-0----0-1-0------3--0--3-3-3-3-3-3-3/5--| 
-0----0---0---------0-------------------| 
 *    *   *         * 

OD 1 
----------------------------------------| 
----------------------------------------| 
/14-12~--10-12-\-------9--10-9-10\------| 
-----------------7-8--------------------| 
----------------------------------------| 
----------------------------------------| 

OD 2 
----------------------------------------| 
----------------------------------------| 
/10--9~---7--9-\-------5---7-5-7\-------| 
-----------------3-5--------------------| 
----------------------------------------| 
----------------------------------------| 
		  

Full key step upFull key step up
Half key step upHalf key step up
Half key step downHalf key step down
Full key step downFull key step down
hide glossary

See also:

tabs Green Day - 21 Guns tabs Green Day - Macy's Day Parade tabs Blink 182 - All The Small Things (Original) tabs Blink 182 - Down tabs Blink 182 - Dammit tabs Blink 182 - All the small things (ver. 2)
e-chords

Other versions:

tabs KillSwitch Engage - No End In Sight
auto scroll beats size up size down change color hide chords drawings
tab show chords e-chords YouTube Clip e-chords hide all tabs e-chords go to top tab

share