KillSwitch Engage

Let The Bridges Burn

KillSwitch Engage

tabs

by  EDSOOLIVEIRA

save to print version add songbook text version e-mail correct tuner
chordsukulelecavacokeyboardtabbassdrumsharmonicaflute Guitar Pro
close

there isn't a video lesson for this song

chords

Let The Bridges Burn

	  		 Intro---- 

 
|--------------------| 
|--------------------| 
|--------------------| 
|--------------------| 
|--------------------| 
|--////Pickslide////-| 


 
|-----------------------------------------------------------------------------| 
|-----------------------------------------------------------------------------| 
|101010101010101010-121212121212121212-141414141414141414-151515151515151515--| 
|x-x-x-x-x-x-x-x-x--x-x-x-x-x-x-x-x-x--x-x-x-x-x-x-x-x-x--x-x-x-x-x-x-x-x-x---| 
|8-8-8-8-8-8-8-8-8--101010101010101010-121212121212121212-131313131313131313--| 
|-----------------------------------------------------------------------------| X4 


 
|--------------------------------------------------------| 
|--------------------------------------------------------| 
|--------------------------------------------------------| 
|------8-0-7-0-5h7p5-------------------------------------| 
|--------------------3-00000-33-00000-----00000----------| 
|--0-0---------------3-00000-33-00000-5h6-00000-2h3p2-5b-| 
   . .                 .....    .....     ..... 


 
|--------------------------------------| 
|--------------------------------------| 
|--------------------------------------| 
|--------------------------------------| 
|--3-00000-33-00000-----00000----------| 
|--3-00000-33-00000-5h6-00000-2h3p2-5b-| x3 
     .....    .....     ..... 


 
|-----------------------------------------------------------------------| 
|-----------------------------------------------------------------------| 
|-----------------------------------------------------------------------| 
|-----7--------5--------7--------5--------7--------5--------7--------5--| 
|--0--5--0--3--3--0--5--5--0--3--3--0--5--5--0--3--3--0--5--5--0--3--3--| 
|--0-----0--3-----0--5-----0--3-----0--5-----0--3-----0--5-----0--3-----| x2 
   .     .  .  .  .  .  .  .  .  .  .  .     .  .  .  .  .  .  .  . 
		  

See also:

tabs Fall Out Boy - Beat It tabs Bad Religion - American Jesus tabs Afi - Miss murder tabs Green Day - Holiday ( Easy Version) tabs Green Day - Time of your life (good ridance) tabs Blink 182 - Stay together for the kids (ver. 2)
e-chords

Other versions:

tabs KillSwitch Engage - Let The Bridges Burn
auto scroll beats size up size down change color hide chords drawings
tab show chords e-chords YouTube Clip e-chords hide all tabs e-chords go to top tab

share