KillSwitch Engage

In The Unblind

KillSwitch Engage

tabs

by  EDSOOLIVEIRA

save to print version add songbook text version e-mail correct tuner
chordsukulelecavacokeyboardtabbassdrumsharmonicaflute Guitar Pro
close

there isn't a video lesson for this song

chords

In The Unblind

	  		
|                         | 
 
|Guitar 2                 | 
|--------------------|    |--------------------| 
|--------------------|    |--------------------| 
|--------------------|    |--------------------| 
|--------------------|    |--------------------| 
|----------2---------|    |-5/6\5---5/5---4/5--| 
|---000000-0---------| X3 |-3/4\3-0-3/2-0-2/3--| 




Outro 
 
 Guitar 1 
|--------------------|    |--------------------| 
|--------------------|    |--------------------| 
|--------------------|    |--------------------| 
|--------------------|    |--------------------| 
|----------2--3-3-3--|    |-5/6\5---5/5---4/5--| 
|---000000-0--1-1-1--| X3 |-3/4\3-0-3/2-0-2/3--| 

|                         | 
 
|Guitar 2                 | 
|--------------------|    |--------------------| 
|--------------------|    |--------------------| 
|--------------------|    |--------------------| 
|--------------------|    |--------------------| 
|----------2---------|    |-5/6\5---5/5---4/5--| 
|---000000-0---------| X3 |-3/4\3-0-3/2-0-2/3--| 




End 
 
 Both Guitars 
|-----| 
|-----| 
|-----| 
|-----| 
|--2--| 
|--0--| 
		  

See also:

tabs Fall Out Boy - Beat It tabs Bad Religion - American Jesus tabs Afi - Miss murder tabs Green Day - Holiday ( Easy Version) tabs Green Day - Time of your life (good ridance) tabs Blink 182 - Stay together for the kids (ver. 2)
e-chords

Other versions:

tabs KillSwitch Engage - In The Unblind
auto scroll beats size up size down change color hide chords drawings
tab show chords e-chords YouTube Clip e-chords hide all tabs e-chords go to top tab

share