Kid Harpoon

home > Kid Harpoon

Hold On Tab

Kid Harpoon

Difficulty: nolevelnolevel

by victborges

tuner correct add songbook print version text version save to e-mail
chordsukulelecavacokeyboardtabbassdrumsharmonicsflute Guitar Pro
chords

Hold On

Key:  Am More
Hold On Key EmEm
Hold On Key FmFm
Hold On Key F#mF#m
Hold On Key GmGm(one step down)
Hold On Key G#mG#m(half step down)
Hold On Key AmAm(original key)
Hold On Key A#mA#m(half step up)
Hold On Key BmBm(one step up)
Hold On Key CmCm
Hold On Key C#mC#m
Hold On Key DmDm
Hold On Key D#mD#m
  		
Verse & Intro: 

Am(add9)      Dm(add9)    Fmaj6    G 

e|--0---(0)----0----1----3--------------------------| 
B|--0----5-----3----1----3--------------------------| 
G|--5----4-----2----2----0--------------------------| 
D|--7----5-----3----0----0--------------------------| 
A|--7----x-----x----0----2--------------------------| 
E|--5----x-----x----x----3--------------------------| 

Chorus 

    C    G   Am    G    F 

e|--0----3----0----3----1----------------------| 
B|--1----0----1----0----1----------------------| 
G|--0----0----2----0----2----------------------| 
D|--2----0----2----0----3----------------------| 
A|--3----2----0----2----3----------------------| 
E|--x----3----0----3----1----------------------| 

Middle Eight 

   Dm    A#   F    G 

e|--5----6----1----3--------------------------------| 
B|--6----6----1----0--------------------------------| 
G|--7----7----2----0-----x2-------------------------| 
D|--7----8----3----0--------------------------------| 
A|--5----8----3----2--------------------------------| 
E|--5----6----1----3--------------------------------| 

Bridge after middle eight (same as Chorus) 

    C    G   Am    G    F 

e|--0----3----0----3----1----------------------| 
B|--1----0----1----0----1----------------------| 
G|--0----0----2----0----2----------------------| 
D|--2----0----2----0----3----------------------| 
A|--3----2----0----2----3----------------------| 
E|--x----3----0----3----1----------------------| 

Embelishment on second chord in verse 

e|---5-5-3------------------------------------------| 
B|--(3)-----5---------------------------------------| 
G|---4----------------------------------------------| 
D|---5----------------------------------------------| 
A|---x----------------------------------------------| 
E|---x----------------------------------------------| 
	  

Full key step upFull key step up
Half key step upHalf key step up
Half key step downHalf key step down
Full key step downFull key step down
Search Paypal
auto scroll beats size up size down change color hide chords drawings
tab show chords e-chords YouTube Clip e-chords hide all tabs e-chords go to top tab