Khalid

Youth

Khalid

tabs

by  LINEKERS

save to print version add songbook text version e-mail correct tuner
chordsukulelecavacokeyboardtabbassdrumsharmonicaflute Guitar Pro
close

there isn't a video lesson for this song

chords

Youth

	  		
Intro 
e|--------------------------------------------------------------------------------| 
B|-3-------3---3---0-------0---0--------------------------------------------------| 
G|-----2---------------2-----------2---0---0h2---2p0------------------------------| 
D|-----------------0-----------------------------------2--------------------------| 
A|---------------------------------3-------------------0--------------------------| 
E|-0------------------------------------------------------------------------------| 

Verse 
e|--------------------------------------------------------------------------------| 
B|-----------------------------------0---------0----------------------------------| 
G|---0---------------------------2---------2---------------------------0----------| 
D|-2---2-2-2-0-0-4---4-4-2-2-0-0-------0-0--------2-2-2-2-2-0-0-4-----4-2-2-0-0---| 
A|-----------------5---------------3---------0-----------------------5------------| 
E|-0-------------------------------------------------0----------------------------| 

e|--------------------------------------------------------------------------------| 
B|-----0---------0----------------------------------------------------------------| 
G|-2---------2--------------------------------------------------------------------| 
D|-------0-0----------------------------------------------------------------------| 
A|---3---------0------------------------------------------------------------------| 
E|--------------------------------------------------------------------------------| 

Pre-Chorus 
e|--------------------------------------------------------------------------------| 
B|---0-----3---1-0---------0-----3---1-0-----------------------0---------------0--| 
G|---0-2-0---------2-0-0---0-2-0---------2-0-4-4-4-4-4-0-0-2-----2---0-----2------| 
D|---0-------0-------------0---------------------------------------2---0-0-------0| 
A|-----------------------3---------0-------------------------5---------------3----| 
E|-0-----------------------------------------0------------------------------------| 

e|------------x----------------------------------------------------------| 
B|--------0---x----------------------------------------------------------| 
G|---2--------x----------------------------------------------------------| 
D|-0----------x----------------------------------------------------------| 
A|-----0----0-x----------------------------------------------------------| 
E|------------x----------------------------------------------------------| 

Chorus 
O O O O O O O O O O O O O O O 
e|--------------------------------------------------------------------------------| 
B|-3-0-----------0-----------------------------------0----------------------------| 
G|-----2---0-2-----2-----------0---------------0---2-----0-2-----------0----------| 
D|---------------------4-4-4-----4---2-2---0-2-----------------4-4-4-----4----2-2-| 
A|---------------------5-------------------3-------------------0------------------| 
E|-0------------------------------------------------------------------------------| 
O O O O O O O 
e|-x-------x-----------------------x----------------------x-----------------------| 
B|-x-3-0---x-------0---------------x----------------------x---0-------------------| 
G|-x-----2-x-0-2-----2-------------x-0------------------0-x-2------0-2------------| 
D|-x-------x------------VV?-4-4-4-x---4---2-2-VV?-0-2---x------------VV?-4-4-4----| 
A|-x-------x-----------------5-----x-5--------------3-----x-3---------------0-----| 
E|-x-0-----x-0---------------------x----------------------x-----------------------| 
O 
e|-x------------x-----------------x-----------------------------------------------| 
B|-x------------3-0-------0-------x-----------------------------------------------| 
G|-x-0----------x---2-0-2---2p0---x-----------------------------------------------| 
D|-x---4----2-2-x---------------2-x-----------------------------------------------| 
A|-x-0----------x-----------------x-----------------------------------------------| 
E|-x------------x-----------------x-----------------------------------------------| 

Verse 
e|-------x---------x-------x-------x-----------x-----x-----------x----------------| 
B|-------x---------x-------x-------x-------0---0-----x-------0---0----------------| 
G|-------x---------x-----0-x-------x---2-------x-----x---2-------x----------------| 
D|-2-2-2-x-2-2-0-0-x-4-----4-0-2---0-0---------x-----0-0---------x-----VV?-2-2-2--| 
A|-------x---------x---5---x-5---0-x-----3---3-x-3-3-x-----0---0-x-0-0------------| 
E|-0-----x-0-------x-------x-------x-----------x-----x-----------x----------0-----| 

e|-x---------x-----------x-----x--------------------------------------------------| 
B|-x---------x-----------x-----x-------------------0---0--------------------------| 
G|-x---------x-------0---x-----x---------------2-----2---2p0----------------------| 
D|-x-2-2-0-0-x-2-4-------4-0-2-0-0-0---0h2-0-0---------------2t-------------------| 
A|-x---------x-----5---5-x-5---x-----3-----------0--------------------------------| 
E|-x-0-------x-----------x-----x--------------------------------------------------| 

Pre-Chorus 
O O O O O O O O 
e|-----x-------x-------x-----------------x-------x-------x--------x---------------| 
B|-----0-------x-3---1-0-----------------0-------x-3---1-0--------x---------------| 
G|-----0-----2-0-------x-2---0-----------0-----2-0-------x-2----0-x---------------| 
D|-----0-------x---0---x-0------VV?-----0-------x-------x--------x----------------| 
A|-----x-------x-------x-------------3-3-x-3-----x---0---x-0------x---------------| 
E|-0-0-x-0-----x-------x-----------------x-------x-------x--------x---------------| 

Chorus 
O O O O O O O 
e|--------x-----------------------x----------------------x------------------------| 
B|--3-0---x-------0---------------x----------------------x---0--------------------| 
G|------2-x-0-2-----2-------------x-0------------------0-x-2------0-2-------------| 
D|--------x------------VV?-4-4-4-x---4---2-2-VV?-0-2---x------------VV?-4-4-4-----| 
A|--------x-----------------5-----x-5--------------3-----x-3---------------0------| 
E|--0-----x-0---------------------x----------------------x------------------------| 
O O O O O O O 
e|-x-----------------------x---------------------x----------------------x---------| 
B|-x-----------------3-0---x---------------------x----------------------x---0-----| 
G|-x-0-------------------2-x-0-2----2------------x-0------------------0-x-2------0| 
D|-x---4----2-2-VV?-------x----------VV?-4-4-4-x---4---2-2-VV?-0-2---x------------| 
A|-x-0---------------------x---------------5-----x-5--------------3-----x-3-------| 
E|-x-----------------0-----x-0-------------------x----------------------x---------| 
O O 
e|--------------x-----------------------------------------------------------------| 
B|--------------x-----------------------------------------------------------------| 
G|-2------------x-0---------------------------------------------------------------| 
D|---VV?-4-4-4-x---4---2-2-VV?----------------------------------------------------| 
A|--------0-----x-0---------------------------------------------------------------| 
E|--------------x-----------------------------------------------------------------| 

Post Chorus 
O O O O O O O O O O O 
e|-----x------------------0----------------x--------------------------------------| 
B|-----0------------------0----------------1--------------------------------------| 
G|-----0------------------0----------------0-------------2-2-2-2-2----------------| 
D|-----0---------VV?-0-0-x-0---0-VV?-----2-------VV?--2-2-2-2-2-------------------| 
A|-----x------------------x------------3-3-x-3---3-------0-0-0-0-0----------------| 
E|-0-0-x-0-----0----------x----------------x------------------------12\-----------| 

Pre-Chorus 
O O O O O 
e|-----------------------------------------------x--------x-------x---------------| 
B|---0-----3---1-0---------0-----3---1-0---------0--------x-3---1-0---------------| 
G|---0-2-0---------2-0-0---0-2-0---------2-0-----0------2-0-------x-2---0---------| 
D|---0-------0-------------0---------------------0--------x---0---x-0-----VV?-----| 
A|-----------------------3---------0-------------x--------x-------x------------3-3| 
E|-0-----------------------------------------0-0-x-0------x-------x---------------| 
O O O 
e|-x-------x-------x-------x------------------------------------------------------| 
B|-0-------x-3---1-0-------x------------------------------------------------------| 
G|-0-----2-0-------x-2---0-x------------------------------------------------------| 
D|-0-------x-------x-------x------------------------------------------------------| 
A|-x-3-----x---0---x-0-----x------------------------------------------------------| 
E|-x-------x-------x-------x------------------------------------------------------| 

Chorus 
O O O O O O O 
e|--------x-----------------------x----------------------x------------------------| 
B|--3-0---x-------0---------------x----------------------x---0--------------------| 
G|------2-x-0-2-----2-------------x-0------------------0-x-2------0-2-------------| 
D|--------x------------VV?-4-4-4-x---4---2-2-VV?-0-2---x------------VV?-4-4-4-----| 
A|--------x-----------------5-----x-5--------------3-----x-3---------------0------| 
E|--0-----x-0---------------------x----------------------x------------------------| 
O O O O O O O 
e|-x-----------------------x---------------------x----------------------x---------| 
B|-x-----------------3-0---x---------------------x----------------------x---0-----| 
G|-x-0-------------------2-x-0-2----2------------x-0------------------0-x-2------0| 
D|-x---4----2-2-VV?-------x----------VV?-4-4-4-x---4---2-2-VV?-0-2---x------------| 
A|-x-0---------------------x---------------5-----x-5--------------3-----x-3-------| 
E|-x-----------------0-----x-0-------------------x----------------------x---------| 
O O O O O O O 
e|--------------x----------------------x----------------------x-------------------| 
B|--------------x----------------3-0---x-------0--------------x-------------------| 
G|-2------------x-0------------------2-x-0-2-----2------------x-0-----------------| 
D|---VV?-4-4-4-x---4---2-2-VV?-------x-----------VV?-4-4-4-x---4---2-2-VV?-0-2----| 
A|--------0-----x-0--------------------x----------------5-----x-5--------------3--| 
E|--------------x----------------0-----x-0--------------------x-------------------| 
O O O 
e|---x----------------------x-----------------------------------------------------| 
B|---x---0------------------x-----------------------------------------------------| 
G|-0-x-2-----0-2------------x-0---------------------------------------------------| 
D|---x-----------VV?-4-4-4-x---4---2-2-VV?----------------------------------------| 
A|---x-3--------------0-----x-0---------------------------------------------------| 
E|---x----------------------x-----------------------------------------------------| 

Outro 
e|-----------------------------------------------------------------------------x--| 
B|-3-0-------0-------------------------0---------------------3-0-------0-------x--| 
G|-----2-0-2---2-------0-----------0-2---0-0h2-------0-----------2-0-2---2p0---x--| 
D|---------------4-4-4---4-2-2-0h2-------------4-4-4---4-2-2-----------------2-x--| 
A|---------------5-------------3---------------0-------------------------------x--| 
E|-0---------------------------------------------------------------------------x--| 

**************** 
x = slap strings 
O = wrist bump 
V = strum down 
? = strum up 
\ = slide down 
/ = slide up 
p = pull off 
h = hammer on 
t = tap 
**************** 
		  

See also:

tabs The Game - Hate It Or Love tabs Usher - You Make Me Wanna tabs TobyMac - Extreme Days tabs 2Pac - Why You Hate On Me tabs Eminem - Sing For The Moment tabs 2Pac - Changes (introdução)
e-chords

Other versions:

tabs Matisyahu - Youth tabs Daughter - Youth tabs Beat Happening - Youth tabs Khalid - Youth tabs Black Veil Brides - Youth And Whisky tabs Skid Row - Youth Gone Wild (solo)
auto scroll beats size up size down change color hide chords drawings
tab show chords e-chords YouTube Clip e-chords hide all tabs e-chords go to top tab

share