Kevin Devine

Lord I Know We Dont Talk

Kevin Devine

tabs

by  HEBEALMEIDA

save to print version add songbook text version e-mail correct tuner
chordsukulelecavacokeyboardtabbassdrumsharmonicaflute Guitar Pro
close

there isn't a video lesson for this song

chords

Lord I Know We Dont Talk

	  		


Tuning: Half Step Down 

verse 1 

     G    G       Em          D        G       Em                 A 
e|---3----3-------0-----------2--------3-------0------------------0---------------------------------------| 
B|---3----3-------0-----------3--------3-------0------------------2---------------------------------------| 
G|---0----0-------0-----------2--------0-------0------------------2---------------------------------------| 
D|---0----0-------2-----------0---0-2--0-------2------------------2---------------------------------------| 
A|---2----2-------2-----------0--------2-------2------------------0---------------------------------------| 
E|---3----3-3--2--0-----------x--------3--3--2-0------------------0---------------------------------------| 

       In a motel room, with the Bible out     Combing scriptures for answers about 

   G               D                  G                    D                              
    G 
e|-3---------------2------------------3-----------0--------2---------------------------------3-------------| 
B|-3---------------3------------------3-----------0--------3---------------------------------3-------------| 
G|-0---------------2------------------0-----------0--------2---------------------------------0-------------| 
D|-0---------------0------------------0-----------2--------0---------------------0---2-------0-------------| 
A|-2---------------0------------------2-----------2--------0---------------------------------2-------------| 
E|-3---------------x------------------3-----3--2--0--------x-----------------------------3---3---3--2--0---| 

   What's happening now   'Cause I  cant believe my eyes      And I just don't trust my ears 

   Em                 A                    G           D 
e|-0------------------0--------------------3-----------2-------------------------| 
B|-0------------------2--------------------3-----------3-------------------------| 
G|-0------------------2--------------------0-----------2-------------------------| 
D|-2------------------2--------------------0-----------0-------------------------| 
A|-2------------------0--------------------2-----------0-------------------------| 
E|-0------------------0--------------------3-----------x-------------------------| 

But I've heard a man can always come find  Some solace here              And Lord, 

verse 2 

   G     G        Em          D        G       Em                        A 
e|-3-----3--------0-----------2--------3-------0-------------------------0-------------------------| 
B|-3-----3--------0-----------3--------3-------0-------------------------2-------------------------| 
G|-0-----0--------0-----------2--------0-------0-------------------------2-------------------------| 
D|-0-----0--------2-----------0---0-2--0-------2-------------------------2-------------------------| 
A|-2-----2--------2-----------0--------2-------2-------------------------0-------------------------| 
E|-3---- 3--3--2--0-----------x--------3--3--2-0-------------------------0-------------------------| 

I know that we don't talk     Often at all anymore    But desperate folks do desperate things 

   G               D                  G                    D                              
    G 
e|-3---------------2------------------3-----------0--------2---------------------------------3-------------| 
B|-3---------------3------------------3-----------0--------3---------------------------------3-------------| 
G|-0---------------2------------------0-----------0--------2---------------------------------0-------------| 
D|-0---------------0------------------0-----------2--------0---------------------0---2-------0-------------| 
A|-2---------------0------------------2-----------2--------0---------------------------------2-------------| 
E|-3---------------x------------------3-----3--2--0--------x-----------------------------3---3---3--2--0---| 

So I'm stapling this note to your door, Please, turn the ship around And lock the course  
in place 

   Em                 A                    G           D 
e|-0------------------0--------------------3-----------2-------------------------| 
B|-0------------------2--------------------3-----------3-------------------------| 
G|-0------------------2--------------------0-----------2-------------------------| 
D|-2------------------2--------------------0-----------0-------------------------| 
A|-2------------------0--------------------2-----------0-------------------------| 
E|-0------------------0--------------------3-----------x-------------------------| 

And keep the train tracks nailed to the ground     Or pull the emergency break 


verse 3 

   G     G        Em                   D        G       Em                              A 
e|-3-----3--------0--------------------2--------3-------0-------------------------------0-------------------| 
B|-3-----3--------0--------------------3--------3-------0-------------------------------2-------------------| 
G|-0-----0--------0--------------------2--------0-------0-------------------------------2-------------------| 
D|-0-----0--------2--------------------0---0-2--0-------2-------------------------------2-------------------| 
A|-2-----2--------2--------------------0--------2-------2-------------------------------0-------------------| 
E|-3---- 3--3--2--0--------------------x--------3--3--2-0-------------------------------0-------------------| 

'Cause I've lost my faith in man/ Just like I once lost faith in you/And I've been  
covering all kinds of ground 

   G               D 
e|-3---------------2---------------| 
B|-3---------------3---------------| 
G|-0---------------2---------------| 
D|-0---------------0---------------| 
A|-2---------------0---------------| 
E|-3---------------x---------------| 

Thinking hard 'bout what else i could lose 


This part changes a bit with alternate chords 


e|--x--------------------5----------------------x------------x-----------x---------| 
B|--8--------------------7----------------------3------------5-----------7---------| 
G|--0--------------------7----------------------4------------6-----------7---------| 
D|--5--------------------7----------------------0------------0-----------0---------| 
A|--7--------------------5----------------------x------------x-----------x---------| 
E|--x--------------------x----------------------3------------5-----------7---------| 

And I know how I look/   To come crawling back/  Acting like you owe me proof 


e|---x------------------------x--x------------------------------x-----------------------| 
B|---6------------------------5--5------------------------------3-----------------------| 
G|---7------------------------6--6------------------------------4-----------------------| 
D|---0------------------------0--0------------------------------0-----------------------| 
A|---x------------------------x--x------------------------------x-----------------------| 
E|---6------------------------5--4------------------------------3-----------------------| 

   But this is bigger than me/  I think it's bigger than you too 

Solo: 

e|---x---x--------x---x---------x------0h2-2-0--3-------5h7-7--5------0----x-------5------------| 
B|--10--10-h-12--12--10---------7------3---3-3--3-------0---0--0------2----3-2-3---7------------| 
G|--12--12-------12--12---------0------2---2-2--0-------0---0--0------2----0-0-0---7------------| 
D|---x---x--------x---x---------5------0---0-0--0-------5---5--5------2----0-0-0---7------------| 
A|--10--10-------10--10---------7------x---x-x--2------/7---7--7------0----2-2-2---5------------| 
E|---x---x--------x---x---------x------x---x-x--3--3-2----------------x----3-3-3---x------------| 
        {4 strums} 

e|---x---x--------x---x---------x------0h2-2-0--3-------5h7-7--5--------------10-7-------------x-------| 
B|--10--10-h-12--12--10---------7------3---3-3--3-------0---0--0-----/7-8-7-5------10-7--------7-6-6-7-| 
G|--12--12-------12--12---------0------2---2-2--0-------0---0--0------------------------9\7----7-7-7-7-| 
D|---x---x--------x---x---------5------0---0-0--0-------5---5--5-------------------------------x-x-x-x-| 
A|--10--10-------10--10---------7------x---x-x--2------/7---7--7-------------------------------7-7-7-7-| 
E|---x---x--------x---x---------x------x---x-x--3--3-2--x---x--x---------------------------------------| 
        {4 strums} 

verse 4 (Palm Muted) 


     G    G       Em          D        G       Em                 A 
e|---3----3-------0-----------2--------3-------0------------------0---------------------------------------| 
B|---3----3-------0-----------3--------3-------0------------------2---------------------------------------| 
G|---0----0-------0-----------2--------0-------0------------------2---------------------------------------| 
D|---0----0-------2-----------0---0-2--0-------2------------------2---------------------------------------| 
A|---2----2-------2-----------0--------2-------2------------------0---------------------------------------| 
E|---3----3-3--2--0-----------x--------3--3--2-0------------------0---------------------------------------| 

   So if this gets to you     Yeah if you ever come home    Just know I won't be  
awaiting the postman 

   G               D                  G                    D                              
    G 
e|-3---------------2------------------3-----------0--------2---------------------------------3-------------| 
B|-3---------------3------------------3-----------0--------3---------------------------------3-------------| 
G|-0---------------2------------------0-----------0--------2---------------------------------0-------------| 
D|-0---------------0------------------0-----------2--------0---------------------0---2-------0-------------| 
A|-2---------------0------------------2-----------2--------0---------------------------------2-------------| 
E|-3---------------x------------------3-----3--2--0--------x-----------------------------3---3---3--2--0---| 

I will not be glued to my phone     I'll know a change has come          I'll know that  
you exist 

   Em                 A                    G           D 
e|-0------------------0--------------------3-----------2-------------------------| 
B|-0------------------2--------------------3-----------3-------------------------| 
G|-0------------------2--------------------0-----------2-------------------------| 
D|-2------------------2--------------------0-----------0-------------------------| 
A|-2------------------0--------------------2-----------0-------------------------| 
E|-0------------------0--------------------3-----------x-------------------------| 

When all our bombs stop exploding /(Stop Palm Muting) And when all of those land-mines  
are stripped 

   G                                 D          G                A        Bm 
e|-3---------------------------------2----------3----------------0---------2------| 
B|-3---------------------------------3----------3----------------2---------3------| 
G|-0---------------------------------2----------0----------------2---------4------| 
D|-0---------------------------------0----------0----------------2---------4------| 
A|-2---------------------------------x----------2----------------0---------2------| 
E|-3---------------------------------x----------3----------------x---------x------| 

And we stop blowin' up strangers' houses/ And making orphans of innocent kids 


   Em                 A                    G           D 
e|-0------------------0--------------------3-----------2-------------------------| 
B|-0------------------2--------------------3-----------3-------------------------| 
G|-0------------------2--------------------0-----------2-------------------------| 
D|-2------------------2--------------------0-----------0-------------------------| 
A|-2------------------0--------------------2-----------0-------------------------| 
E|-0------------------0--------------------3-----------x-------------------------| 

And people stop thinking the world's theirs for the taking/ 'Cause some book once told  
them it is 


Verse 5 

     G    G       Em                   D        G       Em                 A 
e|---3----3-------0--------------------2--------3-------0------------------0--------------------------------| 
B|---3----3-------0--------------------3--------3-------0------------------2--------------------------------| 
G|---0----0-------0--------------------2--------0-------0------------------2--------------------------------| 
D|---0----0-------2--------------------0---0-2--0-------2------------------2--------------------------------| 
A|---2----2-------2--------------------0--------2-------2------------------0--------------------------------| 
E|---3----3-3--2--0--------------------x--------3--3--2-0------------------0--------------------------------| 

'Til then, i'm gonna shake my head/ I'm gonna bite my tongue/ When people tell me, "Have  
faith and be patient, 

   G               D 
e|-3---------------2-------------| 
B|-3---------------3-------------| 
G|-0---------------2-------------| 
D|-0---------------0-------------| 
A|-2---------------0-------------| 
E|-3---------------x-------------| 

We're waiting for God to show up." 

Outro 

e|-x-------------0-------------------------2-------2-----------------------------| 
B|-5-------------2-------------------------3-------3-----------------------------| 
G|-4-------------2-------------------------4-------2-----------------------------| 
D|-0-------------2-------------------------4-------0-----------------------------| 
A|-x-------------0-------------------------2---4---0-----------------------------| 
E|-3-------------x-------------------------x-------x-----------------------------| 

Yeah 'til then, it's one more skeptical song        And i'll be glad as hell 


e|-x---------x---------------------------------2--------------------------------| 
B|-5---------8---------------------------------3--------------------------------| 
G|-4---------0---------------------------------2--------------------------------| 
D|-0---------x---------------------------------0--------------------------------| 
A|-x---------7---------------------------------x--------------------------------| 
E|-3---------x---------------------------------x--------------------------------| 

              If you come and prove me wrong 

************************************ 

| /   slide up 
| \   slide down 
| h   hammer-on 
| p   pull-off 
| ~   vibrato 
| +   harmonic 
| x   Mute note 
| b   Bend 
| pb  Pre-bend 
| br  Bend release 
| pbr Pre-bend release 
| brb Bend release bend 

************************************ 
		  

Full key step upFull key step up
Half key step upHalf key step up
Half key step downHalf key step down
Full key step downFull key step down
auto scroll beats size up size down change color hide chords drawings
tab show chords e-chords YouTube Clip e-chords hide all tabs e-chords go to top tab

share