Kenny Dorham

home > Kenny Dorham

Blue Bossa Tab

Kenny Dorham

Difficulty: nolevelnolevel

by iagovillareal

tuner correct add songbook print version text version save to e-mail
chordsukulelecavacokeyboardtabbassdrumsharmonicsflute Guitar Pro
chords

Blue Bossa

	  
Standard Tuning 

Chords:   

  Cm7          Fm7             Dm7(b5) G7(b13)  Cm7(9)   

e|---------3---3-4-4-----4---4------------------------------------  
B|--4------4---4-4-4-----4---4---6-6------4---4---3-------3--4--5-  
G|--3------3---3-5-5-----5---5---5-5------4---4---3-------3--4--5-  
D|--5------------3-----3---------6-6------3---3---1-------1--2--3-  
A|--3---3------------3-----3-----5----------------3-----3---------  
E|----3------3-----------------------4--3---3--------3------------  

  Ebm7(9) Ab7        Db6(9)             Dm7(b5)  G7(b13)  Cm7(9)  
    
e|----------------------------------------------------------------  
B|--6---------4---4----4--4-----4----4----6-6--------4---4--3-3---  
G|--6---------5---5----3--3-----3----3----5-5--------4---4--3-3---  
D|--4---------4---4----3--3-----3----3----6-6--------3---3--1-1---  
A|----6---------6------4------4-----------5-----------------3-----  
E|------6---4---------------4------4----------4----3---3--------3-  

  G7(b13)  

e|----------------------------------------------------------------  
B|--4----4--------------------------------------------------------  
G|--4----4--------------------------------------------------------  
D|--3----3--------------------------------------------------------  
A|----------------------------------------------------------------  
E|-3---3----------------------------------------------------------  


Melody:  

e|---------------------------------------------------------------  
B|---7S8-6--------------7S8-6~~---5S6---------------6------------  
G|---7S8---8-7-5~-------7S8-------6S7-8-7-5---------7--8~~-------  
D|-5----------------8-6----------------------8~-6-5--------------  
A|---------------------------------------------------------------  
E|---------------------------------------------------------------  


e|----------------------------------------------------------------  
B|----------------------------------------------------------------  
G|-8-6-5--------------3------------3-------3----------------------  
D|--------8-6--4--4-3---3--6~--6-5----6-5-----6--4/5~-------------  
A|----------------------------------------------------------------  
E|----------------------------------------------------------------  


e|----------------------------------------------------------------  
B|---------------6--7/8-------------------------------------------  
G|--------5-7-8-----7/8-------------------------------------------  
D|-5-6-8----------------------------------------------------------  
A|----------------------------------------------------------------  
E|----------------------------------------------------------------  

	  

there is a video lesson for this song
view full video
Full key step upFull key step up
Half key step upHalf key step up
Half key step downHalf key step down
Full key step downFull key step down
Search Paypal
auto scroll beats size up size down change color hide chords drawings
tab show chords e-chords YouTube Clip e-chords hide all tabs e-chords go to top tab