Kavinsky

Protovision

Kavinsky

tabs nolevel nolevel

by  GUSTSILVA

save to print version add songbook text version e-mail correct tuner
chordsukulelecavacokeyboardtabbassdrumsharmonicaflute Guitar Pro
close

there isn't a video lesson for this song

chords

Protovision

	  		

First Part 

e|-----21b23b21--21b23b21-21----11--13-14--16---18b19b18--16--14--20b22--18\13------| 
B|----------------------------------------------------------------------------------| 
G|----------------------------------------------------------------------------------| 
D|----------------------------------------------------------------------------------| 
A|----------------------------------------------------------------------------------| 
E|----------------------------------------------------------------------------------| 

e|---------14--13-----------------------------------------------------------------------| 
B|---14------------14-------------------------------------------------------------------| 
G|---------------------11~--------11-13-13/15-------------------------------------------| 
D|---------------------------1313-------------------------------------------------------| 
A|--------------------------------------------------------------------------------------| 
E|--------------------------------------------------------------------------------------| 

x2 

Second Part - Guitar 

e|---10b---12b---13b---12b-----------------------------------------------------| 
B|-----------------------------------------------------------------------------| 
G|-----------------------------------------------------------------------------| 
D|-----------------------------------------------------------------------------| 
A|-----------------------------------------------------------------------------| 
E|-----------------------------------------------------------------------------| 

x8 

Third Part 

e|--------------------------------------------------------------------------------------| 
B|--------------------------------------------------------------------------------------| 
G|---------------------------------------------------------------11-13-15~-13--11-10----| 
D|-------13----------------13-16---15-------13--15--16----11-13-------------------------| 
A|-13-16------------13-15--------------13-----------------------------------------------| 
E|--------------------------------------------------------------------------------------| 

e|--------------------------------------------------------------------------------------| 
B|--------------------------------------------------------------------------------------| 
G|--------------------11-13-15~--13--11--10-----------------------13-15-15/18~-15-15----| 
D|-13-15-16----11-13----------------------------13-15-16---13-16------------------------| 
A|--------------------------------------------------------------------------------------| 
E|--------------------------------------------------------------------------------------| 

Fourth Part 

e|----10b--12b--13b--12b----10b--12b--13b--17b------------------------------------| 
B|--------------------------------------------------------------------------------| 
G|--------------------------------------------------------------------------------| 
D|--------------------------------------------------------------------------------| 
A|--------------------------------------------------------------------------------| 
E|--------------------------------------------------------------------------------| 

x4 

e|----10b--12b--13b--12b--------------------------------------------------------| 
B|------------------------------------------------------------------------------| 
G|------------------------------------------------------------------------------| 
D|------------------------------------------------------------------------------| 
A|------------------------------------------------------------------------------| 
E|------------------------------------------------------------------------------| 

once, and... 

Final Part 

e|-----21b23b21--21b23b21-21----11--13-14--16---18b19b18--16--14--20b22--18\13------| 
B|----------------------------------------------------------------------------------| 
G|----------------------------------------------------------------------------------| 
D|----------------------------------------------------------------------------------| 
A|----------------------------------------------------------------------------------| 
E|----------------------------------------------------------------------------------| 

e|---------14--13-----------------------------------------------------------------------| 
B|---14------------14--------------------------------13b15--11--------------------------| 
G|---------------------11~--------11-13-13/15------------------11~~~~~~~~13b15----------| 
D|---------------------------1313-------------------------------------------------------| 
A|--------------------------------------------------------------------------------------| 
E|--------------------------------------------------------------------------------------| 

e|-----------------------------------22b------------------------------------------------| 
B|------------------------------21b-----------------------------------------------------| 
G|-------11-13-15-18-19b-19b------------------------------13-15-15/18~-15-15------------| 
D|---13------------------------------13-15-16-----13-16---------------------------------| 
A|--------------------------------------------------------------------------------------| 
E|--------------------------------------------------------------------------------11----| 
 
		  

See also:

tabs Daft Punk - Get Lucky tabs Daft Punk - Derezzed tabs Justice - New Lands tabs Daft Punk - Instant Crush tabs M83 - Dark Moves Of Love tabs Daft Punk - Television Ruled The Nation
e-chords

Other versions:

tabs Kavinsky - Protovision
auto scroll beats size up size down change color hide chords drawings
tab show chords e-chords YouTube Clip e-chords hide all tabs e-chords go to top tab

share with facebook