Katatonia

Sold Heart

Katatonia

tabs

by  DEIVCAVALCANTI

save to print version add songbook text version e-mail correct tuner
chordsukulelecavacokeyboardtabbassdrumsharmonicaflute Guitar Pro
close

there isn't a video lesson for this song

chords

Sold Heart

	  		 
 

Verse I: 
E|-3-----3-----3-----3-----2-----2-----0-----0-----| 
B|----0-----0-----0-----0-----0-----0-----0-----0--| 
G|---0-0---0-0---0-0---0-0---0-0---0-0---0-0---0-0-| 
D|-5-----------5-----------4-----------2-----------| x4 
A|-------------------------------------------------| 
E|-------------------------------------------------| 

E|-----3----3----3----------2---2---2-----| 
B|------8----8----8----------7---7---7----| 
G|--4----4----4------4----4---4---4----4--| 
D|-5-5----5----5----5-5--4-4---4---4--4-4-| 
A|----------------------------------------| 
E|----------------------------------------| 

E|-----3----3----3----------2---0---2-0-----| 
B|------8----8----8----------7---5------3-3-| 
G|--4----4----4------4----4---4---2------4--| 
D|-5-5----5----5----5-5--4-4---4---4--------| x3 
A|------------------------------------------| 
E|------------------------------------------| 

Chorus I: 
 Em ?? Em7 ?? Em     G            Bm       D 
E|---------------------------------------------------| 
B|------3--------------------3----3----3---3---3s5---| 
G|---4----4--4h6p4-----4--6---------4--------4----6--| 
D|-5--5------------5-4----------5--------5---------7-| x3 
A|---------------------------------------------------| 
E|---------------------------------------------------| 
                                                ^^^^^ - strum this passage to 
                                                        proceed from D to Em 

  Em ?? Em7 ?? Em    G           Bm      D ?? Dsus4 ?? Dsus2 ?? Dsus4sus2 
E|----------------------------------------2-222s333-0-0--| 
B|------3--------------------3----3----3---------------3-| 
G|---4----4--4h6p4------4--6--------4--------------------| 
D|-5--5------------5-4----------5------------------------| 
A|-------------------------------------------------------| 
E|-------------------------------------------------------| 

verse 2: 
E|--------------------0-------0-----| 
B|-8--8--8-7--7--7-5--5--5-5--5--5--| 
G|--0--0--0-0--0--0-0--0--0-0--0--0-| 
D|----------------------------------|  x4 
A|----------------------------------| 
E|----------------------------------| 
Chorus 2: Same as verse 2 (or you can play the chords from the first Chorus). 

Outro: 
E|--------------| 
B|---h3p0--h3p0-| 
G|-0-----0------| 
D|--------------| (Fade Out) 
A|--------------| 
E|--------------| 

s ?? slide down 
h ?? hammer on 
p ?? pull off 

Enjoy! 
		  

Full key step upFull key step up
Half key step upHalf key step up
Half key step downHalf key step down
Full key step downFull key step down
auto scroll beats size up size down change color hide chords drawings
tab show chords e-chords YouTube Clip e-chords hide all tabs e-chords go to top tab

share