Kaskade

All That You Give

Kaskade

tabs

by  UBIRBOMFIM

save to print version add songbook text version e-mail correct tuner
chordsukulelecavacokeyboardtabbassdrumsharmonicaflute Guitar Pro
close

there isn't a video lesson for this song

chords

All That You Give

	  		E|--7--7--7--7--7--7--7--7--| 
B|--7--7--7--7--7--7--7--7--| 
G|--8--8--8--8--8--8--8--8--| 
D|--9--9--9--9--9--9--9--9--| 
A|--------------------------| 
E|--------------------------| 

E|--7--7--7--7--7--7--7--7--| 
B|--7--7--7--7--7--7--7--7--| 
G|--8--8--8--8--8--8--8--8--| 
D|--8--8--8--8--8--8--8--8--| 
A|--------------------------| 
E|--------------------------| 

E|--7--7--7--7--7--7--7--7--| 
B|--7--7--7--7--7--7--7--7--| 
G|--8--8--8--8--8--8--8--8--| 
D|--7--7--7--7--7--7--7--7--| 
A|--------------------------| 
E|--------------------------| 

E|--7--7--7--7--7--7--7--7--| 
B|--7--7--7--7--7--7--7--7--| 
G|--8--8--8--8--8--8--8--8--| 
D|--6--6--6--6--6--6--6--6--| 
A|--------------------------| 
E|--------------------------| 

E|--6--6--6--6--6--6--6--6--| 
B|--7--7--7--7--7--7--7--7--| 
G|--8--8--8--8--8--8--8--8--| 
D|--5--5--5--5--5--5--5--5--| 
A|--------------------------| 
E|--------------------------| 


E|--7--7--7--7--7--7--7--7--| 
B|--7--7--7--7--7--7--7--7--| 
G|--7--8--8--8--8--8--8--8--| 
D|--x--x--x--x--x--x--x--x--| 
A|--9--9--9--9--9--9--9--9--| 
E|--------------------------| 

E|--11--| 
B|--12--| 
G|--12--| 
D|--11--| 
A|--11--| 
E|------| 

 
		  

See also:

tabs DHT - Listen To Your Heart tabs Shiny Toy Guns - Money For That tabs Buckethead - Callbox tabs Buckethead - Halloween Theme tabs Starfucker - Bury Us Alive tabs Buckethead - Nightrain (solo)
e-chords

Other versions:

tabs Kaskade - All That You Give
auto scroll beats size up size down change color hide chords drawings
tab show chords e-chords YouTube Clip e-chords hide all tabs e-chords go to top tab

share