Karma Connection

E Mi Mancherai

Karma Connection

tabs Expert expert

by  TERCMORAES

save to print version add songbook text version e-mail correct tuner
chordsukulelecavacokeyboardtabbassdrumsharmonicaflute Guitar Pro
close

there isn't a video lesson for this song

chords

E Mi Mancherai

	  		



Intro: 

   Dm                Dm                Bbm6              A 
e|-------1-0-1-----|-------1-0-1-----|-------1-0-1-----|---------5-------| 
B|-----3-------3---|-----3-------3---|-----2-------2---|-------5---5-----| 
G|---2-----------2-|---2-----------2-|---0-----------0-|-----6-------6---| 
D|-0---------------|-0---------------|-----------------|---7-----------7-| 
A|-----------------|-----------------|-1---------------|-0---------------| 
E|-----------------|-----------------|-----------------|-----------------| 



verse 1: 

   Dm                Dm                Bbm6              A 
e||-------1-0-1-----|-------1-0-1-----|-------1-0-1-----|---------5-------|| 
B||-----3-------3---|-----3-------3---|-----2-------2---|-------5---5-----|| 
G||---2-----------2-|---2-----------2-|---0-----------0-|-----6-------6---|| (x4) 
D||-0---------------|-0---------------|-----------------|---7-----------7-|| 
A||-----------------|-----------------|-1---------------|-0---------------|| 
E||-----------------|-----------------|-----------------|-----------------|| 

   G                 D                 A9                A9 
e|-3-------3-----3-|-2-------0h2-----|-0---------------|-----------------| 
B|-3---------3-----|-3-----------3---|-0-------0-----0-|-----0---0h2-----| 
G|-0-----------0---|-2-------------2-|-2---------2-----|-2-----2-----2---| 
D|-0---------------|-0---------------|-2-----------2---|---2-----------2-| 
A|-2---------------|-----------------|-0-----0---------|-----------------| 
E|-3---------------|-----------------|-----------------|-----------------| 

   G                 D                 A9                A9 
e|-3-------3-----3-|-2-------0h2-----|-0---------------|-----------------| 
B|-3---------3-----|-3-----------3---|-0-------0-----0-|---2-----2-------| 
G|-0-----------0---|-2-------------2-|-2---------2-----|-----2-----------| 
D|-0---------------|-0---------------|-2-----------2---|-------2---------| 
A|-2---------------|-----------------|-0-----0---------|------------0h2p0| 
E|-3---------------|-----------------|-----------------|-----------------| 

   Em                Bm                D                 A 
e|---------0-------|---------2-------|-----------------|-0-------0-------| 
B|---------0-------|---------3-------|-----------------|-2---2---2-------| 
G|---------0-------|-4-------4-------|-7-----7-7---7\--|-2---2---2-------| 
D|---------2-------|-4-------4-------|-7---7-7-7---7\--|-2---2---2-------| 
A|---------2-------|-2-------2-------|-5---5-5-5---5\--|-0---0---0--0h2p0| 
E|-0-------0-------|-----------------|-----------------|-----------------| 

   Em                Bm                D                 A 
e|---------0-------|---------2-------|-----------------|-0-------0-------| 
B|---------0-------|-3-------3-------|-3---------------|-2---2---2--2--2-| 
G|-0-------0-------|-4-------4-------|-2-------4-------|-2---2---2--2--2-| 
D|-2-------2-------|-4-------4-------|-0----/7---7-4---|-2---2---2--2--2-| 
A|-2-------2-------|-2-------2-------|---------------7-|-0---0---0--0--0-| 
E|-0-------0-------|-----------------|-----------------|-----------------| 

   A 
e|-0-------0-------| 
B|-2---2---2--2--2-| 
G|-2---2---2--2--2-| 
D|-2---2---2--2--2-| 
A|-0---0---0--0--0-| 
E|-----------------| 



Chorus 1: 

| Bm    | G     | D     | A     | 
| Bm    | G     | D     | A     | 
| G     | D     | A     | A     | 



Bridge: 

    D                 D                 D                 D 
e||-----------------|-----------------|-----------------|-----------------|| 
B||-----------------|-----------------|-----------------|-----------------|| 
G||-----7---7-7-----|-----7---7---7---|-----7---7-7-----|-7---7---7---7---|| (x2) 
D||-7-7-7-7-7---7---|-7-7-7---7---7---|-7-7-7-7-7---7---|-7-7-7---7---7---|| 
A||-5-5-5-5-5-----5-|-5-5-5-5-5-5-5---|-5-5-5-5-5-----5-|-5-5-5-5-5-5-5---|| 
E||-----------------|-----------------|-----------------|-----------------|| 

   G                 D                 A9                A9 
e|-3-------3-----3-|-2-------0h2-----|-0---------------|-----------------| 
B|-3---------3-----|-3-----------3---|-0-------0-----0-|-----0---0-2-----| 
G|-0-----------0---|-2-------------2-|-2---------2-----|-2-----2-----2---| 
D|-0---------------|-0---------------|-2-----------2---|---2-----------2-| 
A|-2---------------|-----------------|-0---------------|-----------------| 
E|-3---------------|-----------------|-----------------|-----------------| 

   G                 D                 A9                A 
e|-3-------3-----3-|-2-------0h2-----|-0---------------|-----------------| 
B|-3---------3-----|-3-----------3---|-0-------0-----0-|---2---0-2-------| 
G|-0-----------0---|-2-------------2-|-2---------------|-----------------| 
D|-0---------------|-0---------------|-2---------2-----|-2---------2-----| 
A|-2---------------|-----------------|-0---------------|-------------2-0-| 
E|-3---------------|-----------------|-----------------|-----------------| 



verse 2: 

   Em                Bm                D                 A 
e|---------0-------|-----------------|-----------------|-0---------------| 
B|---------0-------|-----------------|-3-------3-------|-2---2-----------| 
G|---------0-------|-4-----2---2-----|-2-------2-------|-2---2-2-4-2-----| 
D|-2-------2-------|-4---4---4---4-2-|-0-------0-------|-2---2-------4-2-| 
A|-2-------2-------|-2---------------|-----------------|-0---0-----------| 
E|-0-------0-------|-----------------|-----------------|-----------------| 

   Em                Bm                D                 A 
e|---------0-------|---------2-------|-----------------|-0-------0-------| 
B|---------0-------|-3-------3-------|-3---------------|-2---2---2--2--2-| 
G|-0-------0-------|-4-------4-------|-2-------4-------|-2---2---2--2--2-| 
D|-2-------2-------|-4-------4-------|-0----/7---7-4---|-2---2---2--2--2-| 
A|-2-------2-------|-2-------2-------|---------------7-|-0---0---0--0--0-| 
E|-0-------0-------|-----------------|-----------------|-----------------| 

   A 
e|-0-------| 
B|-2---2---| 
G|-2---2---| 
D|-2---2---| 
A|-0---0---| 
E|---------| 



Chorus 2: 

| Bm    | G     | D     | A     | (x5) 



Special: 

   D                 D                 D                 D 
e|---------5-------|---------5-------|---------5-------|---------5-------| 
B|---3---3---3---3-|---3---3---3---3-|---3---3---3---3-|---3---3---3---3-| 
G|-2---2-------2---|-2---2-------2---|-2---2-------2---|-2---2-------2---| 
D|-----------------|-----------------|-----------------|-----------------| 
A|-----------------|-----------------|-----------------|-----------------| 
E|-----------------|-----------------|-----------------|-----------------| 



Chorus 3: 

| Dm    | Bb    | F     | C     | (x4) 



Solo: 

   Dm                Bb                F                    C 
e|-----------------|-----------------|--------------------|-----------------| 
B|-8b(10)----------|-6---------------|-10-b(11)r(10)b(10)-|-8---10--8--10---| 
G|-----------------|-----------------|--------------------|-----------------| 
D|-----------------|-----------------|--------------------|-----------------| 
A|-----------------|-----------------|--------------------|-----------------| 
E|-----------------|-----------------|--------------------|-----------------| 

   Dm                Bb                F                    C 
e|-----------------|-----------------|--------------------|-----------------| 
B|-8b(10)----(10)r-|-6---------------|-10-b(11)r(10)b(10)-|-8---10--8-/13---| 
G|-----------------|-----------------|--------------------|-----------------| 
D|-----------------|-----------------|--------------------|-----------------| 
A|-----------------|-----------------|--------------------|-----------------| 
E|-----------------|-----------------|--------------------|-----------------| 

   Dm                Bb                  F                            C 
e|-----------------|-------------------|----------------------------|--------------------| 
B|10-----13---10-|10------10-------|----------------------------|-----------------13-----| 
G|-----------------|-------------12-10-|-12-b(14)r(12)b(14)r(12)p10-|-10-12-10-9-10------| 
D|-----------------|-------------------|----------------------------|--------------------| 
A|-----------------|-------------------|----------------------------|--------------------| 
E|-----------------|-------------------|----------------------------|--------------------| 

   Dm                Bb                F                 C 
e|-----------------|----------------|-----------------|----------------------------------| 
B|-13b(15)---(15)r-|-10--------10\8-|----8----8-10--|------------------------------------| 
G|-----------------|----------------|-10---10---------|-10-12-10-12-12b(14)r(12)p10-12---| 
D|-----------------|----------------|-----------------|----------------------------------| 
A|-----------------|----------------|-----------------|----------------------------------| 
E|-----------------|----------------|-----------------|----------------------------------| 

   Dm 
e|-----------------| 
B|-----------------| 
G|10---------------| 
D|-----------------| 
A|-----------------| 
E|-----------------| 
		  

Full key step upFull key step up
Half key step upHalf key step up
Half key step downHalf key step down
Full key step downFull key step down
hide glossary

See also:

tabs Deep Purple - Smoke on the water (ver. 3) tabs Albert Hammond Jr - Holiday tabs Deep Purple - When a Blind man cries tabs Deep Purple - The Unwritten Law tabs Deep Purple - Highway Star tabs Ira! - Núcleo Base ( Acústico MTV)
e-chords

Other versions:

tabs Karma Connection - E Mi Mancherai
auto scroll beats size up size down change color hide chords drawings
tab show chords e-chords YouTube Clip e-chords hide all tabs e-chords go to top tab

share