Kamikazee

Kunwari

Kamikazee

tabs Expert expert

by  EDUCASTILHO

save to print version add songbook text version e-mail correct tuner
chordsukulelecavacokeyboardtabbassdrumsharmonicaflute Guitar Pro
close

there isn't a video lesson for this song

chords

Kunwari

	  		

Intro: 
e|---------------------------------------------------------------------------|\ 
B|---------------------------------------------------------------------------| \ 
G|---------------------------------------------------------------------------|  \ 
D|---------------------------------------------------------------------------|   \ 
A|---------------------------------------------------------------------------|    \ 
E|--0---11---12------0---11---12------0---11---12------0---11---12-----------|     \ 
                                                                                    X 3 
e|---------------------------------------------------------------------------|     / 
B|---------------------------------------------------------------------------|    / 
G|---------------------------------------------------------------------------|   / 
D|---------------------------------------------------------------------------|  / 
A|---------------------------------------------------------------------------| / 
E|--0---3---5---0------------------------------------------------------------|/ 

e|---------------------------------------------------------------------------|\ 
B|---------------------------------------------------------------------------| \ 
G|---------------------------------------------------------------------------|  X 3 
D|---------------------------------------------------------------------------|  / 
A|---------------------------------------------------------------------------| / 
E|--3---5---3---0------------------------------------------------------------|/ 


Chorus: 
e|---------------------------------------------------------------------------|\ 
B|---------------------------------------------------------------------------| \ 
G|----7---7-7-7---7-7-7---7-7---7---7----------------------------------------|  \ 
D|----7---7-7-7---7-7-7---7-7---7---7----------------------------------------|   \ 
A|----5---5-5-5---5-5-5---5-5---5---5----------------------------------------|    \ 
E|---------------------------------------------------------------------------|     \ 
                                                                                    X 3 
e|---------------------------------------------------------------------------|     / 
B|---------------------------------------------------------------------------|    / 
G|----4---4-4-4---4-4-4---4-4---4---4----------------------------------------|   / 
D|----4---4-4-4---4-4-4---4-4---4---4----------------------------------------|  / 
A|----2---2-2-2---2-2-2---2-2---2---2----------------------------------------| / 
E|---------------------------------------------------------------------------|/ 

e|---------------------------------------------------------------------------| 
B|---------------------------------------------------------------------------| 
G|----2--2--2--2--2--2--2--2-------------------------------------------------| 
D|----2--2--2--2--2--2--2--2--5--5--5--5--5--5--5--5-------------------------| 
A|----0--0--0--0--0--0--0--0--5--5--5--5--5--5--5--5-------------------------| 
E|----------------------------3--3--3--3--3--3--3--3-------------------------| 

e|---------------------------------------------------------------------------| 
B|---------------------------------------------------------------------------| 
G|---------------------------------------------------------------------------| 
D|---------------------------------------------------------------------------|    X 2 
A|---------------------------------------------------------------------------| 
E|----5--3----3---0----3----5--5----3----0----3------------------------------| 

Gloc 9 Rap: 
e|---------------------------------------------------------------------------| 
B|---------------------------------------------------------------------------| 
G|---------------------------------------------------------------------------|    X 8 
D|---------------------------------------------------------------------------| 
A|---------------------------------------------------------------------------| 
E|----5--3----3---0----------------------------------------------------------| 

e|---------------------------------------------------------------------------| 
B|---------------------------------------------------------------------------| 
G|---------------------------------------------------------------------------| 
D|---------------------------------------------------------------------------|    X 2 
A|---------------------------------------------------------------------------| 
E|----5--3----3---0----3----5------------------------------------------------| 

e|---------------------------------------------------------------------------| 
B|---------------------------------------------------------------------------| 
G|---------------------------------------------------------------------------| 
D|---------------------------------------------------------------------------|    X 4 
A|---------------------------------------------------------------------------| 
E|----5--3----3---0----3----5--5----3----0----3------------------------------| 

e|---------------------------------------------------------------------------| 
B|---------------------------------------------------------------------------| 
G|---------------------------------------------------------------------------| 
D|---------------------------------------------------------------------------| 
A|---------------------------------------------------------------------------| 
E|---5--3--5--3--5--3--5--3--5--3--5--3--5--3--5--3--------------------------| 

Chorus: 
e|---------------------------------------------------------------------------|\ 
B|---------------------------------------------------------------------------| \ 
G|----7---7-7-7---7-7-7---7-7---7---7----------------------------------------|  \ 
D|----7---7-7-7---7-7-7---7-7---7---7----------------------------------------|   \ 
A|----5---5-5-5---5-5-5---5-5---5---5----------------------------------------|    \ 
E|---------------------------------------------------------------------------|     \ 
                                                                                    X 3 
e|---------------------------------------------------------------------------|     / 
B|---------------------------------------------------------------------------|    / 
G|----4---4-4-4---4-4-4---4-4---4---4----------------------------------------|   / 
D|----4---4-4-4---4-4-4---4-4---4---4----------------------------------------|  / 
A|----2---2-2-2---2-2-2---2-2---2---2----------------------------------------| / 
E|---------------------------------------------------------------------------|/ 

e|---------------------------------------------------------------------------| 
B|---------------------------------------------------------------------------| 
G|----2--2--2--2--2--2--2--2-------------------------------------------------| 
D|----2--2--2--2--2--2--2--2--5--5--5--5--5--5--5--5-------------------------| 
A|----0--0--0--0--0--0--0--0--5--5--5--5--5--5--5--5-------------------------| 
E|----------------------------3--3--3--3--3--3--3--3-------------------------| 

e|---------------------------------------------------------------------------| 
B|---------------------------------------------------------------------------| 
G|---------------------------------------------------------------------------| 
D|---------------------------------------------------------------------------| 
A|---------------------------------------------------------------------------| 
E|----3---5---3---0----------------------------------------------------------| 

Gloc 9 Rap: 
e|---------------------------------------------------------------------------| 
B|---------------------------------------------------------------------------| 
G|---------------------------------------------------------------------------|    X 8 
D|---------------------------------------------------------------------------| 
A|---------------------------------------------------------------------------| 
E|----5--3----3---0----------------------------------------------------------| 

e|---------------------------------------------------------------------------| 
B|---------------------------------------------------------------------------| 
G|---------------------------------------------------------------------------| 
D|---------------------------------------------------------------------------|    X 2 
A|---------------------------------------------------------------------------| 
E|----5--3----3---0----3----5------------------------------------------------| 

e|---------------------------------------------------------------------------| 
B|---------------------------------------------------------------------------| 
G|---------------------------------------------------------------------------| 
D|---------------------------------------------------------------------------|    X 4 
A|---------------------------------------------------------------------------| 
E|----5--3----3---0----3----5--5----3----0----3------------------------------| 

e|---------------------------------------------------------------------------| 
B|---------------------------------------------------------------------------| 
G|---------------------------------------------------------------------------| 
D|---------------------------------------------------------------------------| 
A|---------------------------------------------------------------------------| 
E|---5--3--5--3--5--3--5--3--5--3--5--3--5--3--5--3--------------------------| 

Chorus: 
e|---------------------------------------------------------------------------|\ 
B|---------------------------------------------------------------------------| \ 
G|----7---7-7-7---7-7-7---7-7---7---7----------------------------------------|  \ 
D|----7---7-7-7---7-7-7---7-7---7---7----------------------------------------|   \ 
A|----5---5-5-5---5-5-5---5-5---5---5----------------------------------------|    \ 
E|---------------------------------------------------------------------------|     \ 
                                                                                    X 3 
e|---------------------------------------------------------------------------|     / 
B|---------------------------------------------------------------------------|    / 
G|----4---4-4-4---4-4-4---4-4---4---4----------------------------------------|   / 
D|----4---4-4-4---4-4-4---4-4---4---4----------------------------------------|  / 
A|----2---2-2-2---2-2-2---2-2---2---2----------------------------------------| / 
E|---------------------------------------------------------------------------|/ 

e|---------------------------------------------------------------------------| 
B|---------------------------------------------------------------------------| 
G|----2--2--2--2--2--2--2--2-------------------------------------------------| 
D|----2--2--2--2--2--2--2--2--5--5--5--5--5--5--5--5-------------------------| 
A|----0--0--0--0--0--0--0--0--5--5--5--5--5--5--5--5-------------------------| 
E|----------------------------3--3--3--3--3--3--3--3-------------------------| 

e|---------------------------------------------------------------------------|\ 
B|---------------------------------------------------------------------------| \ 
G|---------------------------------------------------------------------------|  \ 
D|---------------------------------------------------------------------------|   \ 
A|---------------------------------------------------------------------------|    \ 
E|--0---11---12------0---11---12------0---11---12------0---11---12-----------|     \ 
                                                                                    X 3 
e|---------------------------------------------------------------------------|     / 
B|---------------------------------------------------------------------------|    / 
G|---------------------------------------------------------------------------|   / 
D|---------------------------------------------------------------------------|  / 
A|---------------------------------------------------------------------------| / 
E|--0---3---5---0------------------------------------------------------------|/ 

e|---------------------------------------------------------------------------|\ 
B|---------------------------------------------------------------------------| \ 
G|---------------------------------------------------------------------------|  X 3 
D|---------------------------------------------------------------------------|  / 
A|---------------------------------------------------------------------------| / 
E|--3---5---3---0------------------------------------------------------------|/ 

---BASS SOLO--- 

e|---------------------------------------------------------------------------|\ 
B|---------------------------------------------------------------------------| \ 
G|---------------------------------------------------------------------------|  X 3 
D|---------------------------------------------------------------------------|  / 
A|---------------------------------------------------------------------------| / 
E|--3---5---3---0------------------------------------------------------------|/ 

---GUITAR SOLO (Rhythm Only, sorry)--- 

e|-----------------------------------------------------------------------|\ 
B|-----------------------------------------------------------------------| \ 
G|-----------------------------------------------------------------------|REPEAT UNTIL END OF SOLO 
D|-----------------------------------------------------------------------|  / 
A|-----------------------------------------------------------------------| / 
E|--3---5---3---0--------------------------------------------------------|/ 

---END OF SOLO--- 

e|----------------------------------------------------------------------|\ 
B|----------------------------------------------------------------------| \ 
G|----7---7-7-7---7-7-7---7-7---7---7-----------------------------------|  \ 
D|----7---7-7-7---7-7-7---7-7---7---7-----------------------------------|   \ 
A|----5---5-5-5---5-5-5---5-5---5---5-----------------------------------|    \ 
E|----------------------------------------------------------------------|     \ 
                                                                               X 2 W/O DISTORTION 
e|----------------------------------------------------------------------|     / 
B|----------------------------------------------------------------------|    / 
G|----4---4-4-4---4-4-4---4-4---4---------------------------------------|   / 
D|----4---4-4-4---4-4-4---4-4---4---------------------------------------|  / 
A|----2---2-2-2---2-2-2---2-2---2---------------------------------------| / 
E|----------------------------------------------------------------------|/ 

e|---------------------------------------------------------------------------|\ 
B|---------------------------------------------------------------------------| \ 
G|----7---7-7-7---7-7-7---7-7---7---7----------------------------------------|  \ 
D|----7---7-7-7---7-7-7---7-7---7---7----------------------------------------|   \ 
A|----5---5-5-5---5-5-5---5-5---5---5----------------------------------------|    \ 
E|---------------------------------------------------------------------------|     \ 
                                                                                    X 3 
e|---------------------------------------------------------------------------|     / 
B|---------------------------------------------------------------------------|    / 
G|----4---4-4-4---4-4-4---4-4---4---4----------------------------------------|   / 
D|----4---4-4-4---4-4-4---4-4---4---4----------------------------------------|  / 
A|----2---2-2-2---2-2-2---2-2---2---2----------------------------------------| / 
E|---------------------------------------------------------------------------|/ 

e|---------------------------------------------------------------------------| 
B|---------------------------------------------------------------------------| 
G|----2--2--2--2--2--2--2--2-------------------------------------------------| 
D|----2--2--2--2--2--2--2--2--5--5--5--5--5--5--5--5-------------------------| 
A|----0--0--0--0--0--0--0--0--5--5--5--5--5--5--5--5-------------------------| 
E|----------------------------3--3--3--3--3--3--3--3-------------------------| 

---PAUSE--- 

e|---------------------------------------------------------------------------|\ 
B|---------------------------------------------------------------------------| \ 
G|---------------------------------------------------------------------------|  X 2 
D|---------------------------------------------------------------------------|  / 
A|---------------------------------------------------------------------------| / 
E|--3---5---3---0------3---5---3---0------3---5---3---0----------------------|/ 

e|---------------------------------------------------------------------------| 
B|---------------------------------------------------------------------------| 
G|---------------------------------------------------------------------------| 
D|---------------------------------------------------------------------------|   x 6 
A|---------------------------------------------------------------------------| 
E|--1--0----1--0---1--0----1--0----1--0--------------------------------------| 

e|---------------------------------------------------------------------------| 
B|---------------------------------------------------------------------------| 
G|---------------------------------------------------------------------------| 
D|------------2--------------------------------------------------------------| 
A|------------2--------------------------------------------------------------| 
E|---0--0--0--0--------------------------------------------------------------| 
		  

See also:

tabs Red Hot Chili Peppers - I Could Have Lied tabs Ben Harper - Diamonds on inside tabs Red Hot Chili Peppers - By The Way (ver. 2) tabs Audioslave - Show Me How To Live tabs Incubus - 11 A.M. tabs Red Hot Chili Peppers - Scar Tissue
e-chords

Other versions:

tabs Kamikazee - Kunwari
auto scroll beats size up size down change color hide chords drawings
tab show chords e-chords YouTube Clip e-chords hide all tabs e-chords go to top tab

share