Kamikazee

Kislap

Kamikazee

tabs

by  MAR-GOBBO

save to print version add songbook text version e-mail correct tuner
chordsukulelecavacokeyboardtabbassdrumsharmonicaflute Guitar Pro
close

there isn't a video lesson for this song

chords

Kislap

	  		
Tuning: E A D G B e

INTRO: 

Guitar 1: 

|-0~~---1~~--| 
|-1~~---1~~--| 
|-0~~---2~~--| (2x) 
|-2~~---3~~--| 
|-3~~---3~~--| 
|-------1~~--| 

Guitar 2: 

|-3~~---5~~--| 
|-5~~---6~~--| 
|-5~~---5~~--| 
|------------| (2x) 
|------------| 
|------------| 

Guitar 1: 

|---------------------------------------------------------------------| 
|---------------------------------------------------------------------| 
|-5-5-5-5-55555555-5-5-5-5-55555555-5-5-5-5-55555555-5-5-5-5-55555555-| 
|-5-5-5-5-33333333-5-5-5-5-33333333-5-5-5-5-33333333-5-5-5-5-33333333-| 
|-3-3-3-3-33333333-3-3-3-3-33333333-3-3-3-3-33333333-3-3-3-3-33333333-| 
|---------------------------------------------------------------------| 
  * * * * ******** * * * * ******** * * * * ******** * * * * ******** 
|--------------------------------------------------------| 
|--------------------------------------------------------| 
|-5-5-5-5-55555555-5-5-5-5-55555555-5-5-5-5-55555555-5~~-| 
|-5-5-5-5-33333333-5-5-5-5-33333333-5-5-5-5-33333333-5~~-| 
|-3-3-3-3-33333333-3-3-3-3-33333333-3-3-3-3-33333333-3~~-| 
|--------------------------------------------------------| 
  * * * * ******** * * * * ******** * * * * ******** 

Guitar 2: 

|----------------------------------------------------------------| 
|---0---0--1-1-1----0---0--1-1-1----0---0--1-1-1----0---0--1-1-1-| 
|-0---0---0-0-0---0---0---0-0-0---0---0---0-0-0---0---0---0-0-0--| 
|----------------------------------------------------------------| 
|----------------------------------------------------------------| 
|----------------------------------------------------------------| 

|--------------------------------------------------------------| 
|---0---0--1-1-1----0---0--1-1-1----0---0--1-1-1----0---0--1~~-| 
|-0---0---0-0-0---0---0---0-0-0---0---0---0-0-0---0---0---0----| 
|--------------------------------------------------------------| 
|--------------------------------------------------------------| 
|--------------------------------------------------------------| 

Guitar 1: 

|-------------------------------------------------------------| 
|-------------------------------------------------------------| 
|-------------------------------------------------------------| 
|-55555555555555-33333333333333-55555555555555-33333333333333-| (2x) 
|-33333333333333-33333333333333-33333333333333-33333333333333-| 
|----------------11111111111111----------------11111111111111-| 

Guitar 2: 

|--------------------------------------| 
|--------------------------------------| 
|--------------------------------------| 
|---2-3-2-3/5-3-2-3---2-3-2-5-5/7-5-3~-| (4x) 
|-3-----------------3------------------| 
|--------------------------------------| 


VERSE 1:  

Guitar 1 & 2: 

|-----------------------------| 
|-----------------------------| 
|-555~~-------555-555---------| 
|-555~~-333~~-555-555-333-333-| 
|-333~~-333~~-333-333-333-333-| 
|-------111~~---------111-111-| 

|-----------------------------------------------------------------| 
|-----------------------------------------------------------------| 
|-----------------------------------------------------------------| 
|-55555555555555-33333333333333-55555555555555-33333333333333-5~~-| 
|-33333333333333-33333333333333-33333333333333-33333333333333-5~~-| 
|----------------11111111111111----------------11111111111111-3~~-| 
 


hide this tabHide
tab
INTERLUDE: Guitar 1: |-------------------------------------------------------------| |-------------------------------------------------------------| |-------------------------------------------------------------| |-55555555555555-33333333333333-55555555555555-33333333333333-| |-33333333333333-33333333333333-33333333333333-33333333333333-| |----------------11111111111111----------------11111111111111-| Guitar 2: |--------------------------------------| |--------------------------------------| |--------------------------------------| |---2-3-2-3/5-3-2-3---2-3-2-5-5/7-5-3~-| (2x) |-3-----------------3------------------| |--------------------------------------|
tab
VERSE 2: CHORUS: Guitar 1: |-------------------------------------------------------------| |-------------------------------------------------------------| |-------------------------------------------------------------| |-55555555555555-33333333333333-55555555555555-33333333333333-| |-33333333333333-33333333333333-33333333333333-33333333333333-| |----------------11111111111111----------------11111111111111-| |--------------------------------------------------| |--------------------------------------------------| |--------------------------------------------------| |-77777777777777-33333333333333-77777777777777-5~~-| |-77777777777777-33333333333333-77777777777777-5~~-| |-55555555555555-11111111111111-55555555555555-3~~-| ************** ************** ************** Guitar 2: |----------------------------------------------------------| |-------------------------------1-0---1-0-----3-1---3-1----| |-55555555555555--------------------0-----0~------0-----0~-| |-xxxxxxxxxxxxxx-33333333333333----------------------------| |-33333333333333-33333333333333----------------------------| |----------------11111111111111----------------------------| |--------------------------------------------------| |--------------------------------------------------| |--------------------------------------------------| |-77777777777777-33333333333333-77777777777777-5~~-| |-77777777777777-33333333333333-77777777777777-5~~-| |-55555555555555-11111111111111-55555555555555-3~~-| ************** ************** ************** REPEAT INTERLUDE (2x) CHORUS: |----------------------------------------------------------| |----------------------------------------------------------| |----------------------------------------------------------| |-77777777777777-33333333333333-77777777777777-555555555~~-| |-77777777777777-33333333333333-77777777777777-555555555~~-| |-55555555555555-11111111111111-55555555555555-333333333~~-| ************** ************** ************** BRIDGE: Guitar 2: |-----------------------| |-----------------------| |-5-5-4-4-5-5-7-7-5-4~--| |-x-x-x-x-x-x-x-x-x-x---| |-3-3-2-2-3-3-5-5-3-2~--| |-----------------------| Guitar 1: |-----------------------| |-----------------------| |-----------------------| |-----------------5-4~--| |-----------------3-2~--| |-----------------------| Guitar 1 & 2: palm-muted | sasabay din dito ung bass.. |----------------------|----------------------|----------------------| |----------------------|----------------------|----------------------| |----------------------|----------------------|----------------------| |----------------------|----------------------|----------------------| |----------------------|----------------------|----------------------| |-0-1-0-1-0-1-0-1-0--1-|-0-1-0-1-0-1-0-1-0--1-|-0-1-0-1-0-1-0-1-0--1-| CHORUS: Guitar 1 & 2: |-------------------------------------------------------------| |-------------------------------------------------------------| |-------------------------------------------------------------| |-55555555555555-33333333333333-55555555555555-33333333333333-| (4x) |-33333333333333-33333333333333-33333333333333-33333333333333-| |----------------11111111111111----------------11111111111111-| Guitar 1: Guitar 2: |----------------| |----------------| |-55555555555555-| |-xxxxxxxxxxxxxx-| |-33333333333333-| |----------------| |-----------------------------------------------------------------------------------| |-----------------------------------------------------------------------------------| |-55555555555555-77777777-9999-10101010/121212121212121212121212121212121212121212\-| |-xxxxxxxxxxxxxx-xxxxxxxx-xxxx-xxxxxxxx-xxxxxxxxxxxxxxxxxxxxxxxxxxxxxxxxxxxxxxxxxx--| |-33333333333333-55555555-7777-8-8-8-8-/101010101010101010101010101010101010101010\-| |-----------------------------------------------------------------------------------| |------------------------------------------------------------------------| |------------------------------------------------------------------------| |-5-4---------------5-4---------------5-4---------------5-4--------------| |-----5-3~-5h7-5~~------5-3~-5h7-5~~------5-3~-5h7-5~~------5-3~-5h7-5~~-| |------------------------------------------------------------------------| |------------------------------------------------------------------------| |-------------------| |-------------------| |-------------------| |---2-3-2-3/5-3-2~~-| |-3-----------------| |-------------------| CHORUS: Guitar 1: |-------------------------------------------------------------| |-------------------------------------------------------------| |-------------------------------------------------------------| |-55555555555555-33333333333333-55555555555555-33333333333333-| (4x) |-33333333333333-33333333333333-33333333333333-33333333333333-| |----------------11111111111111----------------11111111111111-| |--------------------------------------------------------------| |--------------------------------------------------------------| |---------------------------------------------------------5~~~-| |-77777777777777-33333333333333-77777777777777-555555555--5~~~-| |-77777777777777-33333333333333-77777777777777-555555555--3~~~-| |-55555555555555-11111111111111-55555555555555-333333333-------| ************** ************** ************** Guitar 2: |-------------------------------------------------------------------------| |-------------------------------------------------------------------------| |-------------------------------------------------------------------------| |--2-3-2-3/5-3-2-3---2-3-2-3/5-3-2-3---2-3-2-3/5-3-2-3---2-3-2-3/5-3-2-3-| (2x) |-3-----------------3-----------------3-----------------3-----------------| |-------------------------------------------------------------------------| |-----------------------------------------------------------------| |------------------------1-1---1-1--------------------------------| |------------------------------------------------------------5~~~-| |-77777777777777-33333333----33----77777777777777-555555555--5~~~-| |-77777777777777-33333333----33----77777777777777-555555555--3~~~-| |-55555555555555-11111111----11----55555555555555-333333333-------| ************** ******** ** **************

See also:

tabs Red Hot Chili Peppers - I Could Have Lied tabs Ben Harper - Diamonds on inside tabs Red Hot Chili Peppers - By The Way (ver. 2) tabs Audioslave - Show Me How To Live tabs Incubus - 11 A.M. tabs Red Hot Chili Peppers - Scar Tissue
e-chords

Other versions:

tabs Kamikazee - Kislap
auto scroll beats size up size down change color hide chords drawings
tab show chords e-chords YouTube Clip e-chords hide all tabs e-chords go to top tab

share