Kaiser Chiefs

Ruffians On Parade

Kaiser Chiefs

tabs

by  MARCNAGEL

save to print version add songbook text version e-mail correct tuner
chordsukulelecavacokeyboardtabbassdrumsharmonicaflute Guitar Pro
close

there isn't a video lesson for this song

chords

Ruffians On Parade

	  		

Intro: (tremolo picking) 
e|----------|----------|----------|-----------| 
B|----------|----------|----------|-----------| 
G|----------|-------7--|----------|------7----| 
D|-5-----7--|-8--------|-5-----7--|-8---------| 
A|----------|----------|----------|-----------| 
E|----------|----------|----------|-----------| 

MAIN RIFF: 
e|-----------------|-----------------|-----------|-----------| 
B|-----------------|-----------------|-----------|-----------| 
G|-------7-8-7-5---|-------7-8-7-5---|-------7-7-|-----------| 
D|-5-------------8-|-5-------------8-|-5---------|-----------| 
A|-----------------|-----------------|-----------|-----------| 
E|-----------------|-----------------|-----------|-----------| 

Verse: (Bass Arranged for Guitar) 
e|---------|---------|---------|---------|-----------------|-----------------| 
B|---------|---------|---------|---------|-8--8--8-8--8--8-|-8--8--8-8--8--8-| 
G|---------|---------|---------|---------|-8--8--8-8--8--8-|-8--8--8-8--8--8-| 
D|---------|---------|---------|---------|-8--8--8-8--8--8-|-8--8--8-8--8--8-| 
A|---------|---------|---------|---------|-6--6--6-6--6--6-|-6--6--6-6--6--6-| 
E|-3-3-3-3-|-3-3-3-1-|-3-3-3-3-|-3-3-3-1-|-----------------|-----------------| 

Pre-Chorus 1: 
e|--------------------|-----------------|--------------------|-----------------| 
B|--------------------|-----------------|--------------------|-----------------| 
G|--------------------|-----------------|--------------------|-----------------| 
D|--------------------|-5-5-5-5-5-5-5-5-|--------------------|-5-5-5-5-5-5-5-5-| 
A|--------------------|-3-3-3-3-3-3-3-3-|----------------5-5-|-3-3-3-3-3-3-3-3-| 
E|-3-3--5-5--6-6--3-3-|-----------------|-3-3--5-5--6-6------|-----------------| 

Chorus: 
e|-----------------|-----------------|-----------------|------------| 
B|-----------------|-----------------|-----------------|------------| 
G|-----------------|-----------------|-----------------|------------| 
D|-8--8--8-8--8--8-|-----------------|-----------------|-------3----| 
A|-6--6--6-6--6--6-|-5--5--5-5--5--5-|-3--3--3-3--3--3-|-3--3--1--3-| 
E|-----------------|-3--3--3-3--3--3-|-1--1--1-1--1--1-|-1--1-----1-| 

POST Chorus 1: 
e|-6--6--6--6--|-6--6--6--6--|-6--6--6--6--|-----------------| 
B|-8--8--8--8--|-8--8--8--8--|-8--8--6--6--|-5--5--5-5--5--5-| 
G|-8--8--8--8--|-7--7--7--7--|-7--7--7--7--|-5--5--5-5--5--5-| 
D|-------------|-------------|-------------|-5--5--5-5--5--5-| 
A|-------------|-------------|-------------|-3--3--3-3--3--3-| 
E|-------------|-------------|-------------|-----------------| 

POST Chorus 2: 
e|--------------------|--------------------| 
B|--------------------|--------------------| 
G|--------------------|--------------------| 
D|--------------------|--------------------| 
A|----------------5-5-|----------------5-5-| 
E|-3-3--5-5--6-6------|-3-3--5-5--6-6------| 

Bridge: 
e|-----------------|-----------------|-----------------|-----------------| 
B|-----------------|-----------------|-----------------|-----------------| 
G|-5-5-5-5-5-5-5-5-|-8-8-8-8-8-8-8-8-|-----------------|-----------------| 
D|-5-5-5-5-5-5-5-5-|-8-8-8-8-8-8-8-8-|-5-5-5-5-5-5-5-5-|-3-3-3-3-3-3-3-3-| 
A|-3-3-3-3-3-3-3-3-|-6-6-6-6-6-6-6-6-|-5-5-5-5-5-5-5-5-|-3-3-3-3-3-3-3-3-| 
E|-----------------|-----------------|-3-3-3-3-3-3-3-3-|-1-1-1-1-1-1-1-1-| 

OUTRO: 
e|----| 
B|----| 
G|----| 
D|-5--| 
A|-5--| 
E|-3--|  
		  

See also:

tabs Bush - Everything zen tabs Faith no More - Ashes To Ashes tabs Oasis - Some Might Say tabs Arctic Monkeys - All My Own Stunts tabs Oasis - Where Did It All Go Wrong tabs Stone Temple Pilots - Plush
e-chords

Other versions:

tabs Kaiser Chiefs - Ruffians On Parade
auto scroll beats size up size down change color hide chords drawings
tab show chords e-chords YouTube Clip e-chords hide all tabs e-chords go to top tab

share