Jules Shear

Bark

Jules Shear

tabs

by  TERCMORAES

save to print version add songbook text version e-mail correct tuner
chordsukulelecavacokeyboardtabbassdrumsharmonicaflute Guitar Pro
close

there isn't a video lesson for this song

chords

Bark

Key:  G More
Bark Key DD
Bark Key D#D#
Bark Key EE
Bark Key FF(one step down)
Bark Key F#F#(half step down)
Bark Key GG(original key)
Bark Key G#G#(half step up)
Bark Key AA(one step up)
Bark Key A#A#
Bark Key BB
Bark Key CC
Bark Key C#C#
	  		

  You don't know how I feel 
e|----------------|----------------|----------------|-------| 
B|-----------1/3--|-----3-------0--|----1-----0-----|----0--| 
G|-----0----------|-----2-------0--|------0-------0-|-------| 
D|----------------|--0-------------|----------------|--0----| 
A|--------3-------|----------------|--3-------------|-------| 
E|-3--------------|----------3-----|----------3-----|-------| 

  There's a sweet kind of chill in the air tonight 
e|-----7----------|-------2--------|----------------| 
B|----8-----------|-----3-------1--|------------0---| 
G|---9-----9------|---2-------0----|----0-------0---| 
D|-------9--------|-0--------------|---------0------| 
A|-7---------7----|---------3------|----------------| 
E|-------------8--|----------------|--3-------------| 

  and you're hurt and I'm standing here in your light 
e|-----7----------|-------2--------|--------| 
B|----8-----------|-----3-------1--|----0---| 
G|---9-----9------|---2-------0----|----0---| 
D|-------9--------|-0--------------|--------| 
A|-7---------7----|---------3------|--------| 
E|-------------8--|----------------|--3-----| 

  Holding back     incomplete       in                           defeat 
e|----------------|----------------|----------------|----------------| 
B|---1-----0------|---1-----0------|-------7------7-|-----------7\---| 
G|-----0---0------|-----0---0------|---7------7-----|----7------7\---| 
D|----------------|----------------|-----7------7---|------7---------| 
A|-3--------------|-3--------------|-5-------5------|--5-------------| 
E|---------3------|---------3------|----------------|--------------2-| 

e|----------------|----------------| 
B|----0-----1-----|-0----------0---| 
G|----0-------0---|-----0----------| 
D|----------------|---------0------| 
A|-------3--------|----------------| 
E|-3--------------|-3--------------| 


Refrain Guitar Solo: 

e|-------------------------------------------------|---------| 
B|--0h3---3-----3----1--------0------0h1-----0-----|---0--8p7| 
G|--0-----0-----0----0--------0------0-------0-----|---------| 
D|--0-----0-----0----0--------0------0-------0-----|--0------| 
A|-------------------------------------------------|---------| 
E|--3---3----3----3-----3--------3------3----------|---------| 

e|---------7------|----------------|----------------| 
B|-8-----8--------|-7-------5------|-0h1h3-------8p7| 
G|-----9----------|-7-------5------|-------0--------| 
D|---9------------|----7--------5--|-------0--------| 
A|----------------|-5-------3------|----------------| 
E|-0--------------|----------------|-3--------3-----| 

e|-------------7\-|----------------|----------| 
B|-8------8-------|-7-------5------|-0h1h3----| 
G|------9---------|-7-------5------|-0-----0--| 
D|----9-----------|----7--------5--|-------0--| 
A|----------------|-5-------3------|----------| 
E|-0--------------|----------------|-3--------| 

e|-0--------------|-0--------------|----------------|----------------| 
B|-1-----0h1h3----|-1-----0h1h3----|-------7------7-|-----------7\---| 
G|-0-----0-----0--|-0-----0-----0--|---7------7-----|----7------7\---| 
D|-----2-------0--|-----2-------0--|-----7-------7--|------7---------| 
A|-3--------------|-3--------------|-5-------5------|--5-------------| 
E|-------3--------|-------3--------|----------------|--------------2-| 

e|----------------|----------------| 
B|----0-----1-----|-----0-----0----| 
G|----0-------0---|-0--------------| 
D|----------------|--------0-------| 
A|-------3--------|----------------| 
E|-3--------------|-3--------------| 


************************************ 
| /   slide up 
| \   slide down 
| h   hammer-on 
| p   pull-off 
************************************ 
		  

See also:

tabs Ohio Players - Fire tabs Debbie Reynolds - Tammy tabs Jay & The Americans - Come A Little Bit Closer tabs The Champs - Tequila tabs Dusty Springfield - Son Of A Preacher Man tabs The Supremes - Baby Love
e-chords

Other versions:

tabs Jules Shear - Bark tabs Ozzy Osbourne - Bark at the Moon tabs Guitar Hero - Bark At The Moon
auto scroll beats size up size down change color hide chords drawings
tab show chords e-chords YouTube Clip e-chords hide all tabs e-chords go to top tab

share