Juanes

home > Juanes

Fotografia Tab

Juanes

Difficulty: ExpertExpert

by europeu

tuner correct add songbook print version text version save to e-mail
chordsukulelecavacokeyboardtabbassdrumsharmonicsflute Guitar Pro
chords

Fotografia

Year: 2002 - Album: Mi Sangre

  		llevo a un lado tus... 
e:---------------------------------------------------------------------------| 
B:-------0-----0--------1-------1------0-----0------1------1-----------------| 
G:---------0----------2---2--------------0--------2---2----------------------| 
D:----0------0-----------------------0-----0---------------------------------| 
A:-----------------0---------0------------------0--------0-------------------| 
E:-3-------------------------------3-----------------------------------------| 
 
en las distancias te puedo ver... 
e:---------------------------------------------------------------------------| 
B:--------------1-1-1--1-1---------------1-1-1--1-1---------------1-1-1--1-1-| 
G:-4-4-4--4-4---2-2-2--2-2--4-4-4--4-4---2-2-2--2-2--4-4-4--4-4---2-2-2--2-2-| 
D:-5-5-5--5-5---2-2-2--2-2--5-5-5--5-5---2-2-2--2-2--5-5-5--5-5---2-2-2--2-2-| 
A:-5-5-5--5-5---0-0-0--0-0--5-5-5--5-5---0-0-0--0-0--5-5-5--5-5---0-0-0--0-0-| 
E:-3-3-3--3-3---------------3-3-3--3-3---------------3-3-3--3-3--------------| 
 
 we we we weah 
e:-----3----------0-0--0----3-3-3--3-3--------------| 
B:-----3--3-----1-1-1--1-1--3-3-3--3-3---1-1-1--1-1-| 
G:-4-4-4--4-4---2-2-2--2-2--4-4-4--4-4---2-2-2--2-2-| 
D:-5-5-5--5-5---2-2-2--2-2--5-5-5--5-5---2-2-2--2-2-| 
A:-5-5-5--5-5---0-0-0--0-0---------------0-0-0--0-0-| 
E:-3-3-3--3-3---------------------------------------| 
 
 
chrous 
e:----------------------------------------------------------------------------3-3-3-3-3-3-| 
B:--------------1-1-1--1-1---------------1-1-1--1-1---------------1-1-1--0----3-3-3-3-3-3-| 
G:-4-4-4--4-4---2-2-2--2-2--4-4-4--4-4---2-2-2--2-2--4-4-4--4-4---2-2-2--0----4-4-4-4-4-4-| 
D:-5-5-5--5-5---2-2-2--2-2--5-5-5--5-5---2-2-2--2-2--5-5-5--5-5---2-2-2--0----5-5-5-5-5-5-| 
A:-5-5-5--5-5---0-0-0--0-0--5-5-5--5-5---0-0-0--0-0--5-5-5--5-5---0-0-0--0--0-5-5-5-5-5-5-| 
E:-3-3-3--3-3---------------3-3-3--3-3---------------3-3-3--3-3---------------------------| 
 
e:-------------| 
B:-1-1-1-1-1-1-| 
G:-2-2-2-2-2-2-| 
D:-2-2-2-2-2-2-| 
A:-0-0-0-0-0-0-| 
E:-------------| 
 
e:----------------------------------------------------------------------------------------| 
B:------------------1---1-1-1--------------1---1-1-1-------------1---1--1-1-------------1-| 
G:-4----4----4-4----2---2-2-2----4----4----2---2-2-2------4------2---2--2-2------4------2-| 
D:-5----5----5-5----------0-0----5----5----------0-0------5-------------0-0------5--------| 
A:-5--------------0---0------------------0---0-----------------0---0------------------0---| 
E:-3--3----3-------------------3----3-----------------3-3----3---------------3-3----3-----| 
 
:------------------------------------------------------------------------------------------| 
:---1-1-1-----3----3-3-3------------1----1-1-1-------------1---1-1-1---------------1--1-1-1| 
:---2-2-2-----4----4-4-4-----4------2----2-2-2------4------2---2-2-2----4---4-4----2--2-2-2| 
:-----0-0--------------------5-------------0-0------5------------0-0----5---5-5------------| 
:-0--------0----0----------------0----0------------------0---0-------------------0---0-----| 
:------------------------3-3---3----------------3-3---3---------------3---3----------------| 
 
 
e:---------------------------| 
B:---3----3-3-3----5---5-5-5-| 
G:---4----4-4-4----5---5-5-5-| 
D:---------------------------| 
A:-0---0---------0---0-------| 
E:---------------------------| 
 
Chorus 
kada vez ke te... 
e:----------------------------------------------------------------------------3-3-3-3-3-3-| 
B:--------------1-1-1--1-1---------------1-1-1--1-1---------------1-1-1--0----3-3-3-3-3-3-| 
G:-4-4-4--4-4---2-2-2--2-2--4-4-4--4-4---2-2-2--2-2--4-4-4--4-4---2-2-2--0----4-4-4-4-4-4-| 
D:-5-5-5--5-5---2-2-2--2-2--5-5-5--5-5---2-2-2--2-2--5-5-5--5-5---2-2-2--0----5-5-5-5-5-5-| 
A:-5-5-5--5-5---0-0-0--0-0--5-5-5--5-5---0-0-0--0-0--5-5-5--5-5---0-0-0--0--0-5-5-5-5-5-5-| 
E:-3-3-3--3-3---------------3-3-3--3-3---------------3-3-3--3-3---------------------------| 
 
e:-------------| 
B:-1-1-1-1-1-1-| 
G:-2-2-2-2-2-2-| 
D:-2-2-2-2-2-2-| 
A:-0-0-0-0-0-0-| 
E:-------------| 
 
kada vez ke te... 
e:----------------------------------------------------------------------------3-3-3-3-3-3-| 
B:--------------1-1-1--1-1---------------1-1-1--1-1---------------1-1-1--0----3-3-3-3-3-3-| 
G:-4-4-4--4-4---2-2-2--2-2--4-4-4--4-4---2-2-2--2-2--4-4-4--4-4---2-2-2--0----4-4-4-4-4-4-| 
D:-5-5-5--5-5---2-2-2--2-2--5-5-5--5-5---2-2-2--2-2--5-5-5--5-5---2-2-2--0----5-5-5-5-5-5-| 
A:-5-5-5--5-5---0-0-0--0-0--5-5-5--5-5---0-0-0--0-0--5-5-5--5-5---0-0-0--0--0-5-5-5-5-5-5-| 
E:-3-3-3--3-3---------------3-3-3--3-3---------------3-3-3--3-3---------------------------| 
 
e:-------------| 
B:-1-1-1-1-1-1-| 
G:-2-2-2-2-2-2-| 
D:-2-2-2-2-2-2-| 
A:-0-0-0-0-0-0-| 
E:-------------| 
 
kada vez ke te... 
e:----------------------------------------------------------------------------3-3-3-3-3-3-| 
B:--------------1-1-1--1-1---------------1-1-1--1-1---------------1-1-1--0----3-3-3-3-3-3-| 
G:-4-4-4--4-4---2-2-2--2-2--4-4-4--4-4---2-2-2--2-2--4-4-4--4-4---2-2-2--0----4-4-4-4-4-4-| 
D:-5-5-5--5-5---2-2-2--2-2--5-5-5--5-5---2-2-2--2-2--5-5-5--5-5---2-2-2--0----5-5-5-5-5-5-| 
A:-5-5-5--5-5---0-0-0--0-0--5-5-5--5-5---0-0-0--0-0--5-5-5--5-5---0-0-0--0--0-5-5-5-5-5-5-| 
E:-3-3-3--3-3---------------3-3-3--3-3---------------3-3-3--3-3---------------------------| 
 
e:-------------| 
B:-1-1-1-1-1-1-| 
G:-2-2-2-2-2-2-| 
D:-2-2-2-2-2-2-| 
A:-0-0-0-0-0-0-| 
E:-------------| 
 
kada vez ke te... 
e:----------------------------------------------------------------------------3-3-3-3-3-3-| 
B:--------------1-1-1--1-1---------------1-1-1--1-1---------------1-1-1--0----3-3-3-3-3-3-| 
G:-4-4-4--4-4---2-2-2--2-2--4-4-4--4-4---2-2-2--2-2--4-4-4--4-4---2-2-2--0----4-4-4-4-4-4-| 
D:-5-5-5--5-5---2-2-2--2-2--5-5-5--5-5---2-2-2--2-2--5-5-5--5-5---2-2-2--0----5-5-5-5-5-5-| 
A:-5-5-5--5-5---0-0-0--0-0--5-5-5--5-5---0-0-0--0-0--5-5-5--5-5---0-0-0--0--0-5-5-5-5-5-5-| 
E:-3-3-3--3-3---------------3-3-3--3-3---------------3-3-3--3-3---------------------------| 
 
 

	  

Search Paypal
auto scroll beats size up size down change color hide chords drawings
tab show chords e-chords YouTube Clip e-chords hide all tabs e-chords go to top tab