Joyce Manor

Drainage

Joyce Manor

tabs

by  PAULANTUNES

save to print version add songbook text version e-mail correct tuner
chordsukulelecavacokeyboardtabbassdrumsharmonicaflute Guitar Pro
close

there isn't a video lesson for this song

chords

Drainage

	  		Standard tuning ?  
. 
e|-------------------------------------------------| 
B|---0-----0-----0-----0-----0-----0-----0-----0---| 
G|-----0-----0-----0-----0-----0-----0-----0-----0-| 
D|-2-----0-----------------------------------------| 
A|-------------2-----0-----------------------------|x2 
E|-------------------------3-----3-----3-----3-----| 

e|-------|   e|-------|   e|-------|   e|-------|    
B|---0---|   B|---0---|   B|---0---|   B|---0---|    
G|-----0-|   G|-----0-|   G|-----0-|   G|-----0-|   Repeat twice 
D|-2-----|   D|-0-----|   D|-------|   D|-------|      
A|-------|x4 A|-------|x4 A|-3-----|x4 A|-------|x4  
E|-------|   E|-------|   E|-------|   E|-3-----|    

e|--------------------------------------------------|\ 
B|---0-----0-----0-----0-----0-----0-----0-----0----| \ 
G|-----0-----0-----0-----0-----0-----0-----0-----0--|  \ 
D|--------------------------------------------------|   \ 
A|-------------------3-----2-----------------3------|    \ 
E|-0-----3-----3-----------------0-----0------------|     \ 
                                                           Repeat twice 
e|--------------------------------------------------|     / 
B|---0-----0-----0-----0-----0-----0-----0-----0----|    / 
G|-----0-----0-----0-----0-----0-----0-----0-----0--|   / 
D|-0------------------------------------------------|  / 
A|-------2-----2-----0------------------------------| / 
E|-------------------------3-----3-----3-----3------|/ 


e|-------------------------------------------------| 
B|---0-----0-----0-----0-----0-----0-----0-----0---| 
G|-----0-----0-----0-----0-----0-----0-----0-----0-| 
D|-2-----0-----------------------------------------| 
A|-------------2-----0-----------------------------|x2 {end on 3) 
E|-------------------------3-----3-----3-----3-----| 
		  

See also:

tabs Blink 182 - All The Small Things (ver. 3) tabs Green Day - Holiday (solo) tabs Green Day - Wake Me Up When September Ends tabs Blink 182 - I miss you (ver. 2) tabs Green Day - Brain Stew tabs Green Day - When I Come Around
e-chords

Other versions:

tabs Joyce Manor - Drainage
auto scroll beats size up size down change color hide chords drawings
tab show chords e-chords YouTube Clip e-chords hide all tabs e-chords go to top tab

share