Jota Quest

Mais Uma Vez

Jota Quest

tabs Beginner beginner

by  THE PIERROT

save to print version add songbook text version e-mail correct tuner
chordsukulelecavacokeyboardtabbassdrumsharmonicaflute Guitar Pro
close

there isn't a video lesson for this song

chords

Mais Uma Vez

Year: 2002 - Album: Discotecagem Pop Variada

	  		Riff 1 
 
e----------------------------------------------------------------| 
b----------------------------5h7-5-3-3-5-------------------------| 
g------3h5p3-------3---------5h7-5-3-3-5-------3h5p3-------------| 
d-3-3---------3-3-------------------------3-3-------------------8| 
a-1-1---------3-3--1p0--5-5---------------1-1---------3-4-5-5-5-6| 
E-----------------------3-3---------------------------------3-3--| 
 
Riff 2 
 
e-------------------| 
b-------------------| 
g-------------------| 
d----3-----3h5p3----| 
a-5-----5---------5-| 
E-------------------| 
 
Riff 3 
 
e--------------| 
b--------------| 
g--------------| 
d--------------| 
a-3--4--5--5-5-| 
E----------3-3-| 
 
Riff 4 
 
e--------------------------------------------------------------------  
b-11-10h11-11-10h11-11-10h11-13-11p10-11-10p11-11-10p11/8-11-13-16---  
g-10-10----10-10----10-10----10-10----10-10----10-10------10-12-15---  
d--------------------------------------------------------------------  
a--------------------------------------------------------------------  
E-------------------------------------------------------------------- 
 
 
Riff 5 
 
e----------------------------| 
b----------------11-11-10-10-|  
g----------------------------|  
d-------8--------13-13-13-13-|  
a-3-4-5-6--------------------|  
E----------------------------| 
 
 
 
Intro: Riff  
Obs.: nos Eb (com asterisco * ao lado) tem o seguinte riff q nomeei como riff 2 acima) 
  
Lá lá lá lá.. Yeah 
Bb               F             Gm 
Te tenho com a certeza de que você pode ir  
                Eb* 
Te amo com a certeza de que irá voltar  
Bb         Riff 3  
Pra gente ser feliz  
                    Eb 
você surgiu e juntos conseguimos ir mais longe  
Bb               F            Gm           Eb*   
você dividiu comigo a sua história e me ajudou a construir a minha  
Bb             riff 3 
Hoje mais do que nunca somos dois  
                         Eb riff 4 acima 
A nossa liberdade é oque nos prende  
 
Bb   F          Gm    Eb* 
Viva todo o seu mundo 
Bb     Riff 3        Eb    
Sinta toda a liberdade 
Bb         F       Gm   Eb* 
E quando a hora chegar, volta ...  
Bb                riff 5  
O nosso amor está acima das coisas desse mundo  
 
Eb  Dm 
 
Refrão: 
 
Eb     Dm       Cm           Eb 
Vai dizer que o tempo não parou  
(A|-3-4-5-|) Gm 
Naquele momento  
Eb         Dm       Cm        
Espero por você o tempo que for  
       Dm                            Eb    F        Bb 
Pra ficarmos juntos   ............... mais uma vez 
 
*Riff 1* 
*Riff 4* 
Bb F Gm Eb (2x)  
 
Bb               F             Gm 
Te tenho com a certeza de que você pode ir  
                Eb* 
Te amo com a certeza de que irá voltar  
Bb         Riff 3 
Pra gente ser feliz  
                    Eb 
você surgiu e juntos conseguimos ir mais longe  
Bb               F            Gm           Eb*   
você dividiu comigo a sua história e me ajudou a construir a minha  
Bb              riff 5   
Hoje mais do que nunca somos dois  
 
 
 
Refrão: 
 
Eb     Dm       Cm           Eb 
Vai dizer que o tempo não parou  
F           Gm 
Naquele momento  
Eb         Dm       Cm       Cm 
Espero por você o tempo que for  
      Dm                            Eb      F  Bb 
Pra ficarmos juntos   ............... mais uma vez 
 

Solo Por Leandro Pires 
 
e|-----------------------------------------------------------------18/-18-18-18-17-17| 
B|-18-18-18-18-18-18-16-16-16-15-15-15-14b5------------------------------------------| 
G|-------------------------------------------15~~~~-12-15-15/17-15-------------------| 
D|-----------------------------------------------------------------------------------| 
A|-----------------------------------------------------------------------------------| 
E|-----------------------------------------------------------------------------------| 
 
e|-17-15-15-15-------15-------15-------15-18p15p13-15p13-18p15p13-15p13-18p15p13-----| 
B|-------------18b20----18b20----18b20-----------------------------------------------| 
G|-----------------------------------------------------------------------------------| 
D|-----------------------------------------------------------------------------------| 
A|-----------------------------------------------------------------------------------| 
E|-----------------------------------------------------------------------------------| 
 
e|-----------------------------------------------------------------------------------| 
B|-18b20br18--15-16-15-16-15-16p15p13h15-15------------------------------------------| 
G|-----------------------------------------------------------------------------------| 
D|-----------------------------------------------------------------------------------| 
A|-----------------------------------------------------------------------------------| 
E|-----------------------------------------------------------------------------------| 

		  

Full key step upFull key step up
Half key step upHalf key step up
Half key step downHalf key step down
Full key step downFull key step down
auto scroll beats size up size down change color hide chords drawings
tab show chords e-chords YouTube Clip e-chords hide all tabs e-chords go to top tab

share