Jonas Brothers

home > Jonas Brothers

S.o.s (ver. 2 ) Tab

Jonas Brothers

Difficulty: EasyEasy

by cezhar

tuner correct add songbook print version text version save to e-mail
chordsukulelecavacokeyboardtabbassdrumsharmonicsflute Guitar Pro
chords

S.o.s (ver. 2 )

  		Intro 

e|-----------------------------------| 
B|-----------------------------------| 
G|-------------------5------5--3h5---| 
D|-----5-----5-----------------------| 
A|--------------2/3-----3------------| 
E|--3-----3--------------------------| 


Verse 

e|-----------------------------------------| 
B|-----------------------------------------| 
G|-------------------5---5--5--5--3h5------| 
D|-----5-----5-----------------------------| x3 
A|--------------2/3-----3--3--3------------| 
E|--3-----3--------------------------------| 


Pre Chorus 

e|----------------------------------------------------------| 
B|----------------------------------------------------------| 
G|-----9-----9--------7-----7-------------------------------| 
D|-----------------------------------7-----7-------7-----7--| 
A|--7-----7------4/5-----5----------------------------------| 
E|------------------------------4/5-----5-----4/5-----5-----| 

Chorus 

e|------------------------------------------------------------------------| 
B|------------------------------------------------------------------------| 
G|--99999999--55555555------------77777777--99999999--55555555------------| 
D|--99999999--55555555--55555555--77777777--99999999--55555555--55555555--| 
A|--77777777--33333333--55555555--55555555--77777777--33333333--33333333--| 
E|----------------------33333333--------------------------------33333333--| 

e|-------------------------------------------------------------------| 
B|-------------------------------------------------------------------| 
G|--77777777------------55555555------------77777777------------5~~--| 
D|--77777777--77777777--55555555--55555555--77777777--77777777--5~~--| 
A|--55555555--77777777--33333333--55555555--55555555--77777777--3~~--| 
E|------------55555555------------33333333------------55555555-------| 

Verse 

e|-----------------------------------------| 
B|-----------------------------------------| 
G|-------------------5---5--5--5--3h5------| 
D|-----5-----5-----------------------------| x3 
A|--------------2/3-----3--3--3------------| 
E|--3-----3--------------------------------| 

Pre Chorus 

e|----------------------------------------------------------| 
B|----------------------------------------------------------| 
G|-----9-----9--------7-----7-------------------------------| 
D|-----------------------------------7-----7-------7-----7--| 
A|--7-----7------4/5-----5----------------------------------| 
E|------------------------------4/5-----5-----4/5-----5-----| 

Chorus 

e|------------------------------------------------------------------------| 
B|------------------------------------------------------------------------| 
G|--99999999--55555555------------77777777--99999999--55555555------------| 
D|--99999999--55555555--55555555--77777777--99999999--55555555--55555555--| 
A|--77777777--33333333--55555555--55555555--77777777--33333333--33333333--| 
E|----------------------33333333--------------------------------33333333--| 

e|-------------------------------------------------------------------| 
B|-------------------------------------------------------------------| 
G|--77777777------------55555555------------77777777------------5~~--| 
D|--77777777--77777777--55555555--55555555--77777777--77777777--5~~--| 
A|--55555555--77777777--33333333--55555555--55555555--77777777--3~~--| 
E|------------55555555------------33333333------------55555555-------| 

Bridge 

e|---------------------------------------------------------| 
B|---------------------------------------------------------| 
G|--55555555--99999999--77777777------------55555555--7~~--| 
D|--55555555--99999999--77777777--77777777--55555555--7~~--| 
A|--33333333--77777777--55555555--77777777--33333333--5~~--| 
E|--------------------------------55555555-----------------| 

e|-------------------------------------------------------------------| 
B|-------------------------------------------------------------------| 
G|--99999999--55555555------------77777777--9~~---5~~----------------| 
D|--99999999--55555555--55555555--77777777--9~~---5~~------55555555--| 
A|--77777777--33333333--55555555--55555555--7~~---3~~------55555555--| 
E|----------------------33333333---------------------------33333333--| 
  PM...................................... 

e|-------------| 
B|-------------| 
G|--77777777---| 
D|--77777777---| 
A|--55555555---| 
E|-------------| 

Chorus 

e|------------------------------------------------------------------------| 
B|------------------------------------------------------------------------| 
G|--99999999--55555555------------77777777--99999999--55555555------------| 
D|--99999999--55555555--55555555--77777777--99999999--55555555--55555555--| 
A|--77777777--33333333--55555555--55555555--77777777--33333333--33333333--| 
E|----------------------33333333--------------------------------33333333--| 

e|-------------------------------------------------------------------| 
B|-------------------------------------------------------------------| 
G|--77777777------------55555555------------77777777------------5~~~-| 
D|--77777777--77777777--55555555--55555555--77777777--77777777--5~~~-| 
A|--55555555--77777777--33333333--55555555--55555555--77777777--3~~~-| 
E|------------55555555------------33333333------------55555555-------| 

And your done, not a very hard song to learn, it tok me five minutes 
, have fun playing it! 

| /  slide up 
| \  slide down 
| h  hammer-on 
| p  pull-off 
| ~  vibrato 
| +  harmonic 
| x  Mute note 
	  

Search Paypal
auto scroll beats size up size down change color hide chords drawings
tab show chords e-chords YouTube Clip e-chords hide all tabs e-chords go to top tab