Jonas Brothers

home > Jonas Brothers

Hold On Tab

Jonas Brothers

Difficulty: nolevelnolevel

by abelamin

tuner correct add songbook print version text version save to e-mail
chordsukulelecavacokeyboardtabbassdrumsharmonicsflute Guitar Pro
chords

Hold On

Year: 2007 - Album: Jonas Brothers

Key:  B More
Hold On Key F#F#
Hold On Key GG
Hold On Key G#G#
Hold On Key AA(one step down)
Hold On Key A#A#(half step down)
Hold On Key BB(original key)
Hold On Key CC(half step up)
Hold On Key C#C#(one step up)
Hold On Key DD
Hold On Key D#D#
Hold On Key EE
Hold On Key FF
  		[email protected] 

Verse 1 
e|-------------------------------| 
B|-------------------------------| 
G|--44---------------------------| x4 
D|--44--44--2222222222222222-----| 
A|--22--44--2222222222222222-----| 
E|------22--0000000000000000-----| 

Chorus 
e|-------------------------------| 
B|-------------------------------| 
G|--4----------------------------| 
D|--4 16x-4------6------2--------| 
A|--2-----4 x16--6 x16--2 x16----| 
E|--------2------4------0--------| 


Verse 2 
e|-----------------------------| 
B|-----------------------------| 
G|--44-------------------------| x4 
D|--44--44--2222222222222222---| 
A|--22--44--2222222222222222---| 
E|------22--0000000000000000---| 

Chorus 
e|-----------------------------| 
B|-----------------------------| 
G|--4--------------------------| x2 
D|--4 16x-4------6------2------| 
A|--2-----4 x16--6 x16--2 x16--| 
E|--------2------4------0------| 

e|--------------------------------| 
B|--------------------------------| 
G|--44----------------------------| 
D|--44--44--2222222222222222------| 
A|--22--44--2222222222222222------| 
E|------22--0000000000000000------| 

Play after bridge: 
e|---------------------------| 
B|---------------------------| 
G|---------------------------| 
D|-66--66--22--22------------| 
A|-66--66--22--22------------| 
E|-44--44--00--00------------| 

Chorus 
e|----------------------------| 
B|----------------------------| 
G|--4-------------------------| x3 
D|--4 16x-4------6------2-----| 
A|--2-----4 x16--6 x16--2 x16-| 
E|--------2------4------0-----| 

ending 





|-------------------------| 
|-------------------------| 
|---44--------------------| 
|---44---66--66--22-------| 
|---22---66--66--22-------| 
|--------44--44--00-------| 

	  

Search Paypal
auto scroll beats size up size down change color hide chords drawings
tab show chords e-chords YouTube Clip e-chords hide all tabs e-chords go to top tab