Jonas Brothers

home > Jonas Brothers

7:05 Tab

Jonas Brothers

Difficulty: ExpertExpert

by adalgomes

tuner correct add songbook print version text version save to e-mail
chordsukulelecavacokeyboardtabbassdrumsharmonicsflute Guitar Pro
chords

7:05

  		e-mail me at [email protected] to tell me what you think and i totally did not  
this from another website. 

Intro: 
e|--------------------------------------------------------------------| 
B|--------------------------------------------------------------------| 
G|------------888-66666-55555555-66666666-----------------------------| 
D|---66666666-888-66666-55555555-66666666-----------------------------| 
A|---66666666-666-44444-33333333-44444444-----------------------------| 
E|---44444444---------------------------------------------------------| 


 Verse 1: 
 "We had a lot"...                              ..."i should know" 
e|----------------------------------------------------------|-----| 
B|----------------------------------------------------------|-----| 
G|-----------55---66---6-----------55---66---6-55---66---55-|-----| 
D|-66---88---55---66---6-66---88---55---66---6-55---66---55-|--4--|x10 
A|-66---88---33---44---4-66---88---33---44---4-33---44---33-|--4--| 
E|-44---66---------------44---66----------------------------|--2--| 


Chorus: 
"I was fine"... 
e|------------------------------------------| 
B|------------------------------------------| 
G|------------888-66666-55555555-66666666---| 
D|---66666666-888-66666-55555555-66666666---|x3 
A|---66666666-666-44444-33333333-44444444---| 
E|---44444444-------------------------------| 


Verse 2: 
"The night after"... 
e|----------------------------------------------------------|-----| 
B|----------------------------------------------------------|-----| 
G|-----------55---66---6-----------55---66---6-55---66---55-|-----| 
D|-66---88---55---66---6-66---88---55---66---6-55---66---55-|--4--|x10 
A|-66---88---33---44---4-66---88---33---44---4-33---44---33-|--4--| 
E|-44---66---------------44---66----------------------------|--2--| 


Chorus: 
"I was fine"... 
e|------------------------------------------| 
B|------------------------------------------| 
G|------------888-66666-55555555-66666666---| 
D|---66666666-888-66666-55555555-66666666---|x3 
A|---66666666-666-44444-33333333-44444444---| 
E|---44444444-------------------------------| 

Bridge: 
"Don't keep tellin'".... 
e|-------------------------------------------------------| 
B|-------------------------------------------------------| 
G|----------9---------9--10--------9--9---10---6---------| 
D|--9-------9------6--9--10----6---9--9---10---6---------| 
A|--9-------7------6--7--8-----6---7--7---8----4---------| 
E|--7--------------4-----------4-------------------------| 

Chorus: 
"I was fine"... 


e|------------------------------------------|   |----| 
B|------------------------------------------|   |----| 
G|------------888-66666-55555555-66666666---|   |----| 
D|---66666666-888-66666-55555555-66666666---|x7 |-6--|(let ring) 
A|---66666666-666-44444-33333333-44444444---|   |-6--| 
E|---44444444-------------------------------|   |-4--| 

	  

Search Paypal
auto scroll beats size up size down change color hide chords drawings
tab show chords e-chords YouTube Clip e-chords hide all tabs e-chords go to top tab