Jonas Blue

Mama

Jonas Blue

tabs

by  UBIRBOMFIM

save to print version add songbook text version e-mail correct tuner
chordsukulelecavacokeyboardtabbassdrumsharmonicaflute Guitar Pro
close

there isn't a video lesson for this song

chords

Mama

	  		
Main Riff 
E|--2-3-2----|-----------| 
B|--------3--|--3-2-2-3--| 
G|-----------|-----------| 
D|-----------|-----------| 
A|-----------|-----------| 
E|-----------|-----------| 

E|----0-2-3-2----|----5-2-3----| 
B|--3---------3--|--3-------3--| 
G|---------------|-------------| 
D|---------------|-------------| 
A|---------------|-------------| 
E|---------------|-------------| 
		  

auto scroll beats size up size down change color hide chords drawings
tab show chords e-chords YouTube Clip e-chords hide all tabs e-chords go to top tab

share