Johnny Winter

home > Johnny Winter

38-32-20 Blues Tab

Johnny Winter

Difficulty: nolevelnolevel

by hugo%5Frodrigues

tuner correct add songbook print version text version save to e-mail
chordsukulelecavacokeyboardtabbassdrumsharmonicsflute Guitar Pro
chords

38-32-20 Blues

  		 Intro 
  Q=176 
  A7               G#7/A   G7/A      A                    E7 
 4/4 
  Gtr I (Ac. Gtr.) 
  H..          E   Q.    E Q.    E   E E Q  Q  Q    E E E E +E  E E E 
|-9--------------|-8-------7-------|-5---5--5--5--|-5---0-------------|| 
|-8--------------|-7-------6-------|--------------|---0---3-(3)-3-----|| 
|----------------|-----------------|--------------|---------------1s9-|| 
|----------------|-----------------|-----5--4--3--|-2-----------------|| 
|-0----0--0--0---|-0---0---0---0---|-0------------|-------------------|| 
|----------------|-----------------|--------------|-----0----0--------|| 
  Q    Q  Q  Q     Q   Q   Q   Q     Q   Q  Q  Q    Q   Q    Q    Q 


   1st - 4th Verses 
    $ 
    A7              G#7/A          A7 
     H.        Q    H.        Q    H.        Q    Q  Q  H 
||---9------------|-8------------|-9------------|-5--4--3------| 
||o--8------------|-7------------|-8------------|--------------| 
||--(9)-----------|--------------|--------------|--------------| 
||----------------|-----------0--|-----------0--|----------0---| 
||o--0---0--0--0--|-0---0--0-----|-0---0--0--0--|-0--0--0------| 
||----------------|--------------|--------------|--------------| 
     Q   Q  Q  Q    Q   Q  Q  Q    Q   Q  Q  Q    Q  Q  Q  Q 


  D7                          A7 
  W             W              H.        Q    Q  Q  H 
|-2-----------|-2-----------|--9------------|-5--4--3-----| 
|-1-----------|-1-----------|-(8)-----------|-------------| 
|-2-----------|-2-----------|---------------|-------------| 
|----0--0--0--|-0--0--0--0--|--0------------|-------------| 
|-------------|-------------|------0--0--0--|-0--0--0-----| 
|-------------|-------------|---------------|----------0--| 
  Q  Q  Q  Q    Q  Q  Q  Q     Q   Q  Q  Q    Q  Q  Q  Q 


                                  1.,D.S. 
                                                          To Coda 
                   D               A                    E7 
  H.         Q     W               E E Q  Q  Q    E E E E +Q   Q 
|-0--------------|-2-------------|-5---5--5--5--|-5---0------------|| 
|----------------|---------------|--------------|---0---3-(3)-----o|| 
|----------------|-2-------------|--------------|------------------|| 
|----------------|-x--0--(0)--x--|-----5--4--3--|-2------------0---|| 
|----------------|---------------|-0------------|-----------------o|| 
|-0---0--0-------|---------------|--------------|-----0----0-------|| 
  Q   Q  Q.    E   Q  Q  +Q   Q    Q   Q  q  q    q   Q    Q   q 


                                    5th Verse 
  2. 
                     D.S. al Coda & 
  A                  E7                A7             G#7/A 
  Q  Q  Q  Q    q  E E +E  E E E     a H.        Q    H.       Q 
|-------------|----0--------------||-8s9------------|-8-------------| 
|----5--4--3--|-2----3-(3)-3------||-7s8------------|-7-------------| 
|-------------|------1-(1)---1s9--||----------------|---------------| 
|----5--4--3--|-2-----------------||----------------|----------0----| 
|-0-----------|-------------------||---0---0--0-----|-0-----0-------| 
|-------------|----0----0---------||----------------|---------------| 
  Q  Q  Q  Q    q  Q    Q    Q         Q   Q  H       H     Q  Q 


  A7                           D7 
                                                     PM-| 
  H.        Q    Q  Q  H       H     +E  Q.      H.        Q 
|-9------------|-5--4--3-----|-2-----(2)-------|-2------------| 
|-8------------|-------------|-1-----(1)-------|-1------------| 
|--------------|-------------|-2-----(2)-2-----|--------------| 
|-----------0--|----------0--|-0------0-----0--|-0---0--0-----| 
|-0---0--0--0--|-0--0--0-----|-----------------|-----------0--| 
|--------------|-------------|-----------------|--------------| 
  Q   Q  Q  Q    Q  Q  Q  Q    Q  Q   Q     Q    Q   Q  Q  Q 


  A7                                E7 
  Q  E E +Q   Q    Q  E E +Q   Q    Q  Q   E  E Q    H.        Q 
|------9-(9)-----|-5--5-5-(5)-----|-0---------x----|-2------------| 
|------8-(8)-----|------0-(0)--0--|-0------3--x----|--------------| 
|----------------|-------------0--|----1-----------|--------------| 
|-------------0--|------0-(0)--0--|----------------|-0---0-----0--| 
|-0--0----0---0--|-0----0-(0)-----|-0--0--(0)------|--------0-----| 
|----------------|----------------|----------------|--------------| 
  Q  Q    Q   Q    Q  E E +Q   Q    Q  Q  +H         Q   Q  Q  Q 


                                    6th Verse 
  A                   E7             A7             G#7/A 
  Q  Q  Q  Q    e E E E +E  E E E    H.        Q    H.        Q 
|-------------|-5---0-------------||-9------------|-8------------| 
|----5--4--3--|-----0-3-(3)-3-----||-8------------|-7------------| 
|-------------|---0---1-(1)-1-1s9-||--------------|--------------| 
|----5--4--3--|-2-----------------||--------------|--------------| 
|-0-----------|-------------------||-0---0--0-----|-0---0--0-----| 
|-------------|-----0----0--------||-----------0--|-----------0--| 
  Q  Q  q  q    q   Q    Q    Q      Q   Q  Q  Q    Q   Q  Q  Q 


  A7 
  Q.    E +E  E Q     Q.     E  +E   E  E  E 
|-9----------------|--0--------------0-------| 
|-8-----------8----|-13-----13-(13)-13-13\---| 
|-------9-(9)------|--------13-(13)----------| 
|---------------0--|-------------------------| 
|-0---0---------0--|--0---x------------------| 
|------------------|-------------------------| 
  Q   Q    Q    Q     Q   Q      H 


  D7 
  Q.    E  +E  Q.      H    E E E E 
|-2-----2--(2)-------|-2------------| 
|-1----(1)-(1)-------|--------1-----| 
|-2------------------|------2---2s9-| 
|--------------2-----|----------0---| 
|-----------------0--|--------------| 
|--------------------|--------------| 
  H         Q     Q    H    Q   Q 


  A7                                E7               D7 
  H.        Q    Q.    E +E  E Q    Q  Q  +E  E Q    H    +E  E Q 
|-9------------|-5-----5-(5)------|-0--------------|-2----(2)------| 
|-8------------|-------0-(0)------|-0---------3----|-1----(1)-1----| 
|--------------|-------------0----|----1--(1)---1--|------------2--| 
|--------------|-5---5----5----0--|----------------|-0-------------| 
|-0---0--0--0--|---------------0--|-------------x--|---------------| 
|--------------|------------------|-0--0--(0)------|---------------| 
  Q   Q  Q  Q    Q   Q    Q    Q    Q  Q  +Q    Q    H     H 


                                    7th Verse 
  A                   E7             A7             G#7/A 
  Q  Q  Q  Q    e E E E +E  E E E    H.        Q    H.        Q 
|----5--5--5--|-5---0-------------||-9------------|-8------------| 
|-------0-----|-----0-3-(3)---x---||-8------------|-7------------| 
|-------------|---0---1-(1)-1-1s9-||--------------|--------------| 
|----5--4--3--|-2-----------------||--------------|-----------0--| 
|-0-----------|-------------------||-0---0--0--0--|-0---0--0-----| 
|-------------|-----0----0--------||--------------|--------------| 
  Q  Q  q  q    q   Q    Q    Q      Q   Q  Q  Q    Q   Q  Q  Q 


  A7                             A                 D7 
  H.        Q    Q   Q   Q  Q    Q.   E +E  E Q    H.          Q 
|-9------------|-0---0---0-----|------5-(5)------|-2--------------| 
|-8------------|-x--13--13-----|-5---------------|-1--------------| 
|--------------|---------------|-5----------5----|-2--------------| 
|--------------|------------0--|-----------------|-------------0--| 
|-0---0--0--0--|-0---0---0-----|-0---------------|-0---0--(0)-----| 
|--------------|---------------|-----------------|----------------| 
  Q   Q  Q  Q    Q   Q   Q  Q    H.           Q    Q   Q  +Q   Q 


  A                           E7                D 
  W             Q  Q  Q  Q    Q  Q   +E  E Q    Q.    E +Q   Q 
|-------------|-5--4--3-----|-----------------|-2---------------| 
|-------------|-------------|----3---(3)-3----|-----------------| 
|-------------|-------------|-1------------x--|-2-----2-(2)-----| 
|----------0--|-------------|--------------x--|-0---0--------0--| 
|-0--0--0-----|-0--0--0-----|-----------------|-----------------| 
|-------------|----------0--|-0--0------------|-----------------| 
  Q  Q  Q  Q    Q  Q  Q  Q    Q  H.             Q   Q    Q   Q 


                                      8th Verse 
  A                   E7               A7             G#7/A 
  Q  Q  Q  Q    e E E E +E  E +E  E    H.        Q    H.         Q 
|----5--5--5--|-5---0---------------||-9------------|-8--------------| 
|-------------|-----0-3-(3)---------||-8------------|-7--------------| 
|-------------|---0---x-(x)-1-(1)s9-||--------------|----------------| 
|----5--4--3--|-2-------------------||--------------|----------------| 
|-0-----------|----------------0----||-0---0--0-----|-0---0--0--(0)--| 
|-------------|-----0----0----------||-----------0--|----------------| 
  Q  Q  Q  q    q   Q    Q     Q       Q   Q  Q  Q    Q   Q  Q   Q 


  A7                                D7 
  H.        Q    Q.    E +E  E Q    H.       Q    H     +E  E Q 
|-9------------|-5-----------5----|-2-----------|-2-----(2)------| 
|-8------------|-0-------------x--|-1-----------|-1-----(1)-1-x--| 
|--------------|-------0-(0)---x--|-------------|-------------x--| 
|--------------|-5---5---(5)---4--|-0---0----0--|-0--0--(0)---0--| 
|-0---0--0--0--|------------------|-------------|----------------| 
|--------------|------------------|-------------|----------------| 
  Q   Q  Q  Q    Q   Q   +Q    q    Q   H    Q    Q  Q  +Q    Q 


    A7                                E7                D7 
  a Q   E  E +Q.    E   Q  Q  Q  Q    Q.   E +E  E Q    H     +E  E Q 
|-8s9------0-(0)----0-|-5--4--3-----|-0----------0----|-2-----(2)------| 
|---------------------|-------------|-3----3-(3)-3-x--|-1-----(1)-1----| 
|---------------------|-------------|-1------------x--|-2-----(2)---2--| 
|-----------------0---|----0--0-----|-----------------|-0--0--------0--| 
|---0--(0)----0-------|-0--------0--|-----------------|----------------| 
|---------------------|-------------|-0---------------|----------------| 
    Q   Q     Q   Q     Q  Q  Q  Q    W                 Q  Q   Q    Q 


  A                  E7            A7 
                       |3| |3-| 
  Q  Q  q  q    q  E E Q E Q  E     W          +W 
|----5--5--5--|-5------0-0-x-(0)-|-^3--------|-(3)----*| 
|----0-----0--|-0----0-0-0-------|-^2--------|-(2)----*| 
|-------------|----0h1-----------|-^2--------|-(2)----*| 
|----5--4--3--|-0----------------|-^2--------|-(2)----*| 
|-0-----------|------------------|-^0--------|-(0)----*| 
|-------------|----0---0---------|-----------|--------*| 
  Q  Q  Q  q    q  Q   Q   Q 


 
	  

Full key step upFull key step up
Half key step upHalf key step up
Half key step downHalf key step down
Full key step downFull key step down
Search Paypal
auto scroll beats size up size down change color hide chords drawings
tab show chords e-chords YouTube Clip e-chords hide all tabs e-chords go to top tab