Johnny Rivers

home > Johnny Rivers

Secret Agent Man Tab

Johnny Rivers

Difficulty: BeginnerBeginner

tuner correct add songbook print version text version save to e-mail
chordsukulelecavacokeyboardtabbassdrumsharmonicsflute Guitar Pro
chords

Secret Agent Man

  		Before Solo: 
 
E|--0---0---0--------------- 
B|-------------------------- 
G|-4--/5--/6---------------- -REPEAT- 
D|-------------------------- 
A|-------------------------- 
E|-------------------------- 
 
 
Solo: 
 
E|---------------------------------------------------------------------(0)----- | 
B|---------------------------------------------------------------------10------ | 
G|------7--9/11-9-77---7----------7---9b-7---------------7-9--/11-11-11----11-- | 
D|--9-9--------------9---9p7h9--9---9------9--7-9-7--9-9----------------------- | 
A|----------------------------------------------------------------------------- | 
E|----------------------------------------------------------------------------- | 
 
 
con't 
 
E|--(0)------(0)--------------------------------------------------------------- | 
B|--10-------10---------------12-12-12--15b-12--------------------------------- | 
G|-----11-11-----11-9-11-9-11------------------15b-12-14-12-14-12-------------- | 
D|----------------------------------------------------------------14p12-9-7-9-- | 
A|----------------------------------------------------------------------------- | 
E|----------------------------------------------------------------------------- | 
 
 
con't 
 
E|----------------------------------------------------------------------------- | 
B|----------------------------------------------------------------------------- | 
G|--------------7-9/-11-9-7-7--7-7-9b--7--------------------------------------- | 
D|-7-9-7-9--9-9---------------9-9-9------9------------------------------------- | 
A|----------------------------------------------------------------------------- | 
E|----------------------------------------------------------------------------- | 
 
 
the ending is wrong i think so any corrections would be appreaciated. thanks. 
please rate this tab. peace. 
 

	  

Search Paypal
auto scroll beats size up size down change color hide chords drawings
tab show chords e-chords YouTube Clip e-chords hide all tabs e-chords go to top tab