John Mayer

home > John Mayer

Instagram Tab

John Mayer

Difficulty: nolevelnolevel

by jov%2Dcorrea

tuner correct add songbook print version text version save to e-mail
chordsukulelecavacokeyboardtabbassdrumsharmonicsflute Guitar Pro
chords

Instagram

	  
Solo: 
      0:04 seconds into video 
e|---------------------------------------------------------------------------| 
B|---------------------------------------------------------------------------| 
G|---------------------------------------------------------------------------| 
D|----------7---7------------9~~---7----------9/7----------------------------| 
A|-----/9-----------9------------------9-------------5b----------------------| 
E|----------------------10---------------------------------7-----------------| 

      0:10 
e|---------------------------------------------------------------------------| 
B|---------------------------------------------------------------------------| 
G|---------------------------9b--7-----------------------7b------------------| 
D|---------7---7---9b---7------------9-------7h9---(9)-----------------------| 
A|----/9---------------------------------9-----------------------------------| 
E|---------------------------------------------------------------------------| 


    0:15                                         0:21      *finger tap 
e|---------------------------------------------------------------------------| 
B|---------------------------------------------------------------------------| 
G|--pb9--r7h9~~--7---pb9--r7---9--7--------------9/11----14*----12brb---9----| 
D|------------------------------------9----9~~-------------------------------| 
A|---------------------------------------------------------------------------| 
E|---------------------------------------------------------------------------| 


e|---------------------------------------------------------------------------| 
B|--------10----------12------------12---------------------------------------| 
G|--/11---------11-----------11-------------9h11---9----------9--------9h11--| 
D|------------------------------------------9-----------12--------12---------| 
A|---------------------------------------------------------------------------| 
E|---------------------------------------------------------------------------| 



e|---------------------------------------------------------------------------| 
B|----------10---------------------------------------------------------------| 
G|---9h11---------11p9----------9---------------------------------9----------| 
D|------------------------12--------9--------9~~------------12b--------12--9-| 
A|--------------------------------------12---------12---9--------------------| 
E|---------------------------------------------------------------------------| 

    0:34 
e|--------------------------10--------12----10b------------------------------| 
B|--------10------12-------------------------------12--------12~~------------| 
G|--9h11------11-------11--------11---------------------11-------------------| 
D|---------------------------------------------------------------------------| 
A|---------------------------------------------------------------------------| 
E|---------------------------------------------------------------------------| 


    0:39 
e|--12b---12---10------------12---10b-------------------------------------------------| 
B|-----------------12-------------------12----—---——----—-—----——--—------------------| 
G|----------------------11-------------------11----(11)/9--------9------9-------------| 
D|----------------------------------------------------------12------12-----12--9--9~~-| 
A|-----------------------------------------------------------------------------—------| 
E|-----------------------—----------------------------------—-------------------------| 

    0:45 
e|—-12b-—12~——12~-(10)—--12~——10———12~—10———13brb—————--—--————----——————----| 
B|---------------------------------------------------------------------------| 
G|---------------------------------------------------------------------------| 
D|---------------------------------------------------------------------------| 
A|---------------------------------------------------------------------------| 
E|---------------------------------------------------------------------------| 

                             *hold bend while performing hammer on and pull off 
e|—13b--—pb14———10b--—————10b*—10h12p10——————--—--————----————————10b—————---| 
B|-------------------12------------------12---—--12~-----10-------------12~\-| 
G|-------------------------------------------11---------------11-------------| 
D|---------------------------------------------------------------------------| 
A|---------------------------------------------------------------------------| 
E|---------------------------------------------------------------------------| 

e|—--————--——————————————--—--————----———————————————————————————————————----| 
B|-10h12~---12~----10--------------------------------------------------------| 
G|----------------------11--9------------9-----------------------------------| 
D|------------------------------12---9-------9----12brb----------------------| 
A|---------------------------------------------------------------------------| 
E|---------------------------------------------------------------------------| 

e|—--————--——————————————--—--————----———————————————|————————————————————----| 
B|---------------------------------------------------|------------------------| 
G|---------------------------------------------------|------------------------| 
D|---9-----------------------------------------------|------------------------| 
A|-------12---9/7--------------7---------------------|------------------------| 
E|-------------------10---7----------10----7---5-----|----7-------------------| 
There’s an abrupt end to the video but it’s assumed his ending note would’ve been  
on the 7th feet of the low E string.  

************************************ 

| x   Dead note 
| g   Grace note 
| (n) Ghost note 
| h   Hammer-on 
| p   Pull-off 
| r   Release 
| >   Accented note 
| t   Tapping 
| b   Bend 
| br  Bend release 
| pb  Pre-bend 
| pbr Pre-bend release 
| /   Slide up 
| \   Slide down 
| ~   Vibrato 
| s   Slap 
| P   Pop 
| PM  Palm mute 
| TR  Trill 
| N   Tremolo 

************************************ 
	  

there isn't a video lesson for this song

request
Search Paypal
auto scroll beats size up size down change color hide chords drawings
tab show chords e-chords YouTube Clip e-chords hide all tabs e-chords go to top tab