John Mayer

home > John Mayer

Belief Tab

John Mayer

Difficulty: ExpertExpert

by %2D+kepler+%2D

tuner correct add songbook print version text version save to e-mail
chordsukulelecavacokeyboardtabbassdrumsharmonicsflute Guitar Pro
chords

Belief

Year: 2006 - Album: Continuum

(John Mayer)

  		

Parte A: 

e|-------------------------------------------------------------------| 
B|----------6---6-----5----------------------------------------------| 
G|---------------------------------7---7----5-----------3---3----2---| 
D|-------/7---7----5\------------------------------------------------| 
A|-5-5--------------------------/8---8---\7-----3-3--/5---5---\3-----| 
E|------------------------3-3----------------------------------------| 



e|-------------------------------------------------------------------| 
B|---------6---6-----8-----------------------------------------------| 
G|-------------------------------------------------------------------| 
D|------/7---7---/-8-------------------------------------------------| 
A|-5-5---------------------------------------------------------------| 
E|-------------------------------------------------------------------| 


 
e|-------------------------------------------------------------------| 
B|----------11-----11-----11------------10-----10----8---------------| 
G|-------------------------------------------------------------------| 
D|-----/12-----12------\11----------/10----10-----\8-----------------| 
A|-------------------------------------------------------------------| 
E|-3-3-------------------------8-8-----------------------------------| 



e|-------------------------------------------------------------------| 
B|---------8---8----6----------6---6--5------------------------------| 
G|---------------------------------------5h7-------------------------| 
D|------/8---8---\7---------/7---7-----------------------------------| 
A|-8-8-----------------5-5-------------------------------------------| 
E|-------------------------------------------------------------------| 


Chorus: 

e|-------------------------------------------------------------------| 
B|-------------------------------------------------------------------| 
G|-----------------------10------9-------9\7-------------------------| 
D|------------------------------------------------10-----------------| 
A|-----12-12-12-12-12/13----\10-------10-------10--------------------| 
E|-10-------------------------------8--------8-----------------------| 

Parte B: 


e|------------------------------| 
B|-----------------------8h10-8-| 
G|----5---5h7-------------------| 
D|-/7---7-----5h7-5/3-----------| 
A|--------------------5---------| 
E|------------------------------| 


Pre-Solo: 

e|----------------------------------------| 
B|-11p10p8h10--11\6--6h8h10\5--6h8h10\3---| 
G|----------------------------------------| 
D|----------------------------------------| 
A|----------------------------------------| 
E|----------------------------------------| 


Solo 
e|-------------------------------------------------------------------| 
B|-13h15--------------------10-13------------------------------------| 
G|-------\12-\12p10---12b14-------12b14(12)p10-----------------------| 
D|---------------------------------------------12--------------------| 
A|------------------------------------------------\10-\10-\10p8h10p8-| 
E|-------------------------------------------------------------------| 



e|-------------------------------------------------------------------| 
B|-------------------------------------------------------------------| 
G|-------------10----------------------------------------------------| 
D|-------10-12----12p10--10h12-10h12-10h12p10------------------------| 
A|-10/12--------------------------------------10h12p10\8-------------| 
E|-------------------------------------------------------10----------| 



e|-------------------------------------------------------------------| 
B|-------------------/13-/13-/13-------------------------------------| 
G|-------------------/14-/14-/14----------10-12-12p10-12p10-12b------| 
D|----------------------------------10-12----------------------------| 
A|-8h10-8h10-8h10p8--------------12----------------------------------| 
E|-------------------------------------------------------------------| 



e|-----------13b-----------------------------------------------------| 
B|-----13-15-----15p13h15-13h15--------------------------------------| 
G|-/14---------------------------------------------------------------| 
D|-------------------------------------------------------------------| 
A|-------------------------------------------------------------------| 
E|-------------------------------------------------------------------| 

	  

Search Paypal
auto scroll beats size up size down change color hide chords drawings
tab show chords e-chords YouTube Clip e-chords hide all tabs e-chords go to top tab