John Mayall

All Your Love

John Mayall

tabs

by  GUSTSILVA

save to print version add songbook text version e-mail correct tuner
chordsukulelecavacokeyboardtabbassdrumsharmonicaflute Guitar Pro
close

there isn't a video lesson for this song

chords

All Your Love

	  		
  Am7                                                 Dm7                          Am7 
E|-------|--------------|-------------|--------------|-------------|--------------|-------------| 
B|-------|--------------|-------------|--------------|-------------|--------------|------5------| 
G|-------|--------------|------5------|--------------|------5------|----5--5-5-7--|----5---5----| 
D|-------|----5--5-5-7--|----5---5-7--|----5--5-5-7--|----5---5-7--|5h7-----------|5h7-------7--| 
A|-------|5h7-----------|5h7----------|5h7-----------|5h7---------5|-------------5|-------------| 
E|------5|-------------5|------------5|-------------5|-------------|--------------|------------5| 

                 Em7           Dm7            Am7 
E|--------------|-------------|--------------|-------------|--------------| 
B|--------------|-------------|--------------|------5------|--------------| 
G|--------------|------5------|----7--7-7-9--|----5---5----|--------------| 
D|----5--5-5-7--|----5---5-7--|7h9-----------|5h7-------7--|----5--5-5-7--| 
A|5h7-----------|5h7----------|-------------5|-------------|5h7-----------| 
E|-------------5|------------5|--------------|------------5|-------------5| 

Lead 
  Am7                                     Dm7                   Am7                  Em7 
E|5\----------|------|5\----------|------|5\------------|------|5\----------|-------|5\------------------| 
B|5\----------|------|5\----------|------|5\------------|------|5\----------|-------|5\------------------| 
G|----7br9p5--|5-----|----7br9p5--|5-----|----7br9p5----|5h7~~~|----7br9p5--|5------|----7br9p5----7b9~~~| 
D|-----------7|--7~~~|-----------7|--7~~~|-----------7--|------|-----------7|---7~~~|-----------7--------| 
A|------------|------|------------|------|--------------|------|------------|-------|--------------------| 
E|------------|------|------------|------|--------------|------|------------|-------|--------------------| 

  Dm7     Am7 
E|-------|--------------|----5\| 
B|5------|--------------|----5\| 
G|--8-7-7|5h7p5~~-------|----5\| 
D|-------|---------7-7~~|------| 
A|-------|--------------|------| 
E|-------|--------------|------| 

  Am7                                        Dm7         Am7             Em7   Dm7         Am7 
E|--------|--------|8----8----8---|-8h10p8~~|-----|-----|-----|---------|-----|-----------|-----|------| 
B|8/10~~~~|(10)~~~~|--10---10---10|---------|-----|-----|-----|8--------|-----|-----------|-----|------| 
G|--------|--------|--------------|---------|-----|-----|-----|--9\7-5~~|9~~~~|7/9-5-7-5~~|-----|------| 
D|--------|--------|--------------|---------|-----|-----|-----|---------|-----|-----------|-----|---5h7| 
A|--------|--------|--------------|---------|-----|-----|-----|---------|-----|-----------|-----|7-----| 
E|--------|--------|--------------|---------|-----|-----|-----|---------|-----|-----------|-----|------| 


  Am7                                                Dm7       Am7 
E|-------|-----|------8b|---10br12p8----------------|----|----|--------------|---------------|----| 
B|-------|-----|----8---|10----------10~~--5--------|----|----|--8-----------|--8---8---8---8|8~~~| 
G|-------|-----|9~------|--------------------5-7-5~~|----|----|9---9\7-5-7-5~|9---9---9---9--|----| 
D|-------|-----|--------|---------------------------|----|----|--------------|---------------|----| 
A|-------|-----|--------|---------------------------|----|----|--------------|---------------|----| 
E|-------|-----|--------|---------------------------|----|----|--------------|---------------|----| 

  Dm7        Am7 
E|----------|----|----| 
B|8---------|----|----| 
G|--7-9-9-7b|----|----| 
D|----------|----|----| 
A|----------|----|----| 
E|----------|----|----| 

(w/ heavy vibrato) 
  Am7                                                   Dm7                    Am7 
E|---------12---|------12---|---------12---|------12---|---------12|--------5~|---------12---| 
B|---13---------|13---------|---13---------|13---------|---13------|----13--6~|---13---------| 
G|14----14----14|---14----14|14----14----14|---14----14|14----14---|14------7~|14----14----14| 
D|--------------|-----------|--------------|-----------|-----------|----------|--------------| 
A|--------------|-----------|--------------|-----------|-----------|----------|--------------| 
E|--------------|-----------|--------------|-----------|-----------|----------|--------------| 

  Em7                Dm7         Am7 
E|---------12-------|7--7-7\5--5|-----------|----| 
B|---13----------12\|8--8-8\6--6|-----------|----| 
G|14----14----14----|9--9-9\7--7|9p7~-------|----| 
D|------------------|-----------|-----7p5-7~|----| 
A|------------------|-----------|-----------|----| 
E|------------------|-----------|-----------|----| 

  A7                                                                 D7                             A7 
E|-------------8b|--------|----8----8--------------|10br12p8-10-8---|10b12-8-------8b|-------------|------5\| 
B|10-10-10--10---|10b13~~~|10b---10---10-8---8~--10|--------------10|--------10-10---|8b10~~~-8-5--|------5\| 
G|---------------|--------|----------------9-------|----------------|----------------|------------7|-5------| 
D|---------------|--------|------------------------|----------------|----------------|-------------|---7----| 
A|---------------|--------|------------------------|----------------|----------------|-------------|--------| 
E|---------------|--------|------------------------|----------------|----------------|-------------|--------| 
   
             E7             D7                       A7 
E|------8-10|10br12p8----8b|20b22-20~~~--20-17----17|---------------------------|---------| 
B|10-10-----|---------10---|-------------------20---|20b22-20-17--17------------|---17----| 
G|----------|--------------|------------------------|----------------19b21-19-17|19----17b| 
D|----------|--------------|------------------------|---------------------------|---------| 
A|----------|--------------|------------------------|---------------------------|---------| 
E|----------|--------------|------------------------|---------------------------|---------| 


  Am7                                       Dm7                              Am7 
E|5\----------|------|5\----------|--------|5\------------|-----------------|5\----------|-------| 
B|5\----------|------|5\----------|--------|5\------------|-----------------|5\----------|-------| 
G|----7br9p5--|5-----|----7br9p5--|5h7-5~~~|----7br9p5----|7b9~-7b9-7-5h7-5~|----7br9p5--|5------| 
D|-----------7|--7~~~|-----------7|--------|-----------7--|-----------------|-----------7|---7~~~| 
A|------------|------|------------|--------|--------------|-----------------|------------|-------| 
E|------------|------|------------|--------|--------------|-----------------|------------|-------| 

  Em7                     Dm7           Am7 
E|5\--------------3---3\1|-------------|8b10-8-5----------|5~---| 
B|5\------------5---5----|3~--1-3-1h3p1|------------------|5~---| 
G|----7br9p5-------------|-------------|---------7\5------|5~---| 
D|-----------7-----------|-------------|-------------7---5|-----| 
A|-----------------------|-------------|---------------7--|-----| 
E|-----------------------|-------------|------------------|-----| 


| /  slide up 
| \  slide down 
| h  hammer-on 
| p  pull-off 
| ~  vibrato 
| +  harmonic 
| x  Mute note 
		  

Full key step upFull key step up
Half key step upHalf key step up
Half key step downHalf key step down
Full key step downFull key step down
auto scroll beats size up size down change color hide chords drawings
tab show chords e-chords YouTube Clip e-chords hide all tabs e-chords go to top tab

share