John Loeffler

We Will Be Heroes - Pokemon Theme

John Loeffler

tabs

by  EDSOOLIVEIRA

save to print version add songbook text version e-mail correct tuner
chordsukulelecavacokeyboardtabbassdrumsharmonicaflute Guitar Pro
close

there isn't a video lesson for this song

chords

We Will Be Heroes - Pokemon Theme

	  		Verse: 
e|--0---0---------0---0--------------2--2--------2--2--2---------------------| 
B|----------0-------------0-----0*---------0--0-----------0------------------| 
G|---------------------------------------------------------------------------| 
D|---------------------------------------------------------------------------| 
A|---------------------------------------------------------------------------| 
E|---------------------------------------------------------------------------| 

e|--4--2--0---0--4--2--0--2--------4--0--0--0--2-----------------------------| 
B|---------------------------2-----------------------------------------------| 
G|---------------------------------------------------------------------------| 
D|---------------------------------------------------------------------------| 
A|---------------------------------------------------------------------------| 
E|---------------------------------------------------------------------------| 
Chorus: 
e|----4--2--0-----0----0-0-0--0-0--2--2--4--2------4--2--0-----0---0-0-0-0---| 
B|-------------4--------------------------------------------4----------------| 
G|---------------------------------------------------------------------------| 
D|---------------------------------------------------------------------------| 
A|---------------------------------------------------------------------------| 
E|---------------------------------------------------------------------------| 

e|----2--2--4--2-------4--2--0--7--2-----0-0-0--4---2---0----2---------------| 
B|--------------------------------------------------------4------------------| 
G|---------------------------------------------------------------------------| 
D|---------------------------------------------------------------------------| 
A|---------------------------------------------------------------------------| 
E|---------------------------------------------------------------------------| 
		  

See also:

tabs Ira! - Nucleo De Base tabs Deep Purple - Smoke on the Water (correct) tabs Deep Purple - Strange kind of woman tabs Deep Purple - Smoke On Water tabs Deep Purple - Black Night(Ver.2) tabs Deep Purple - Money Talks
e-chords

Other versions:

tabs John Loeffler - We Will Be Heroes - Pokemon Theme
auto scroll beats size up size down change color hide chords drawings
tab show chords e-chords YouTube Clip e-chords hide all tabs e-chords go to top tab

share