John Lennon

Imagine (ver. 2)

John Lennon

tabs Beginner beginner

save to print version add songbook text version e-mail correct tuner
chordsukulelecavacokeyboardtabbassdrumsharmonicaflute Guitar Pro
close

there isn't a video lesson for this song

chords

Imagine (ver. 2)

	  		 
Verse: 
 
--------0---0---4---4---2------------- 
--0---2------------------------------- 
-------------------------------------- 
-------------------------------------- 
-------------------------------------- 
-------------------------------------- 
 
----------0---0----4----2------------- 
--0---2------------------------------- 
-------------------------------------- 
-------------------------------------- 
-------------------------------------- 
-------------------------------------- 
 
----------4---4----2------------------ 
--0--3-------------------------------- 
-------------------------------------- 
-------------------------------------- 
-------------------------------------- 
-------------------------------------- 
 
-------------0----4---4---2----------- 
---3---0------------------------------ 
-------------------------------------- 
-------------------------------------- 
-------------------------------------- 
-------------------------------------- 
 
-------0---3---5---4--4---2----------- 
---3---------------------------------- 
-------------------------------------- 
-------------------------------------- 
-------------------------------------- 
-------------------------------------- 
 
-------------------------------------- 
---3--3---4---5---6------------------- 
-------------------------------------- 
-------------------------------------- 
-------------------------------------- 
-------------------------------------- 
 
Bridge: 
 
---5---6---4---3---2------------------ 
-------------------------------------- 
-------------------------------------- 
-------------------------------------- 
-------------------------------------- 
-------------------------------------- 
 
-------------------------------------- 
-----2--0---2--2--3--3---------------- 
--3----------------------------------- 
-------------------------------------- 
-------------------------------------- 
-------------------------------------- 
 
--------------1----------------------- 
-----3--2--1-----3-------------------- 
--3-----------------3----------------- 
-------------------------------------- 
-------------------------------------- 
-------------------------------------- 
 
-------------------------------------- 
---------1--0------1--1--------------- 
--2--2---------2---------------------- 
-------------------------------------- 
-------------------------------------- 
-------------------------------------- 
 
-------------------------------------- 
-------------------------------------- 
--------0---3--0---2------------------ 
--0--3-------------------------------- 
-------------------------------------- 
-------------------------------------- 
 
---------3---------------------------- 
-------------------------------------- 
--------------1---1------------------- 
---3---------------------------------- 
-------------------------------------- 
--------------------------------------
		  

See also:

tabs James Blunt - Same Mistake tabs Tears For Fears - I Believe tabs Toto - Caught In The Balance tabs Kenny G - Dying Young tabs David Gray - This Years Love tabs The Libertines - Can't Stand me Now
e-chords

Other versions:

tabs Jack Johnson - Imagine tabs Armin Van Buuren - Imagine tabs John Lennon - Imagine (ver. 2) tabs Madina Lake - Imagineer
auto scroll beats size up size down change color hide chords drawings
tab show chords e-chords YouTube Clip e-chords hide all tabs e-chords go to top tab

share