John Frusciante

With Love Tab

John Frusciante

Difficulty: nolevelnolevel

by brunblazkowski

tuner correct add songbook print version text version save to e-mail
chordsukulelecavacokeyboardtabbassdrumsharmonicsflute Guitar Pro
close

there isn't a video lesson for this song

request
chords

With Love

  		E|-----------------------------------------------------10--13-12-10| 
B|-----10----------------------------------------------------------| 
G|-7/9----9/7p5--7-7p5--------------5------------------------------| 
D|---------------------7--7--7--5/7---7/5--3--3--3-----------------| 
A|-----------------------------------------------------------------| 
E|-----------------------------------------------------------------| 

E|----------------8-------------------------------------------------| 
B|--13-10---8/10-----10--8--6-6-------6h8-6-----6h8-6h8-6-6---------| 
G|--------------------------------5h7-------5h7---------------------| 
D|------------------------------------------------------------------| 
A|------------------------------------------------------------------| 
E|------------------------------------------------------------------| 

E|-----------------8--6r5-5-5----10b12r10--6r5-5-5-------------------| 
B|---8/10/8--5-6~--------------------------------------8h10-8h10-8h10| 
G|-5-----------------------------------------------------------------| 
D|-------------------------------------------------------------------| 
A|-------------------------------------------------------------------| 
E|-------------------------------------------------------------------| 

E|----------------------------------------8----8----8-----------------| 
B|8h10-8h10-8h10-8h10-8h10-8h10-8h10-8h10---10---10---10/8-6-8-6-8p6/5| 
G|--------------------------------------------------------------------| 
D|--------------------------------------------------------------------| 
A|--------------------------------------------------------------------| 
E|--------------------------------------------------------------------| 

E|--------------5----------------------------8-6-5-------------| 
B|-6-6-6p5-5-6-8-8-6-5-6-6-6--8b10-8-6-5-6---------6--8b10-8b10| 
G|--------7----------------------------------------------------| 
D|-------------------------------------------------------------| 
A|-------------------------------------------------------------| 
E|-------------------------------------------------------------| 

E|----------------------------------------------x--------------| 
B|-8b10r8p6/5-6--5h6p5-5------------------------x--------------| 
G|--------------------7-7-5h7p5-5-------5---5-5-x-7b9r7p5------| 
D|-----------------------------7--7-5-7---7----------------7--7| 
A|-------------------------------------------------------------| 
E|-------------------------------------------------------------| 

E|---------------------------------------x---------------------| 
B|---------------------------------------x---------------------| 
G|-----------------------------------5h7-x--7b9r7-5------------| 
D|-7p5--7--7p5---------------7/10--7----------------7/10/7-----| 
A|-------------8--8/12--12/7-----------------------------------| 
E|-------------------------------------------------------------| 

E|----------------------------------5-----5-----5--8-5---------| 
B|------------------------------5h6---5h6---5h6--------6-5-6~--| 
G|-----5h7p5--7b9-7b9-7b9-7b10---------------------------------| 
D|-5h7---------------------------------------------------------| 
A|-------------------------------------------------------------| 
E|-------------------------------------------------------------| 

E|---10b12-10-8------------10b12-10-8--10---------------------------| 
B|--------------10-10~--------------------10-10~---8h10-10--8h10-10-| 
G|------------------------------------------------------------------| 
D|------------------------------------------------------------------| 
A|------------------------------------------------------------------| 
E|------------------------------------------------------------------| 

E|-----8----8---------8----8b---------------------------------------| 
B|-8h10-(10)-10~--8h10-(10)---10~--8h10-10--8h10-10-10~--8h10-10-10~| 
G|------------------------------------------------------------------| 
D|------------------------------------------------------------------| 
A|------------------------------------------------------------------| 
E|------------------------------------------------------------------| 

B|-10/8-6-5-6~--5--8------------13~---------------------------------| 
G|-------------------5h7~-------------------------------------------| 
D|------------------------------------------------------------------| 
A|------------------------------------------------------------------| 
E|------------------------------------------------------------------| 
	  

Search Paypal
auto scroll beats size up size down change color hide chords drawings
tab show chords e-chords YouTube Clip e-chords hide all tabs e-chords go to top tab

share with facebook