John Denver

Leaving On A Jet Plane

John Denver

tabs Easy easy

save to print version add songbook text version e-mail correct tuner
chordsukulelecavacokeyboardtabbassdrumsharmonicaflute Guitar Pro
close

there isn't a video lesson for this song

chords

Leaving On A Jet Plane

	  		This is a nice slow and very easy picking to do while playing this  
magnificent song. 
 
Intro 
Don't think this are the right name on the chords, but it'll have to do. 
 
e-------------------------------------------- 
B-------------------------------0------------ 
G--2--2---1----1---2----2---1--2------------- 
D---0---0----0---0----0---0------------------ 
A----2---2----2---2----2---2----------------- 
E--2--------2--------2--------2-------------- 
 
   A       D       A       D     A      D      E 
All..       ..Go          ..Door         ..Goodbye              But.. Chorus 
e------------------------------------------------0----0----0---|----:|--0- 
B--3-2---------0---3-2-------0---3-2----3-2-----0----0----0----|--0-:|-0-- 
G-----2-------2--2----2-----2--2-2--4-2-2--4-2-4--4-2--2-1---1-|-2--:|---- 
D--------2-4-4-----------2-4-----2---2--4--4-0-----------------|----:|---- 
A--0----0----------0----0--------0-----------------------------|----:|---- 
E----------0---------------0------------0------6----4----2-----|----:|---- 
 
  A      D           A       D         A       D       E 
So..                         ..me                    ..go  
e-0----0-------------0-----0-----------0-----0-----------0----0----0-- 
B-2---2--3-2---------2-3-2---3-2-------2-3-2---3-2------0----0----0--- 
G-2-2----2--2--------2----2--2--2---2--2----2--2---4-2-4--4-2--2-1--1- 
D----2---4---2h4-2-0---------4---2h4-0---------4--4--0---------------- 
A-0------------------0-----------------0------------------------------ 
E--------0-------------------0-----------------0-------6----4----2---- 
 
      A      D       A       D       A       D       E  
Cause..                    Don't..         Oh..    ..go                           2.ver 
e-0-0-0------2-0--0----0---0---0-----------0-----------0----0----0--0--0----0----0----- 
B--------2---3--3--------2---3--3-2------2---3--2-----0----0----0--0--0----0----0--3-3- 
G-------2-2--2-----2----2-----2----2---2--2---2--4-2-4--4-2--2-1--1--4--4-2--2-1--1---- 
D------2---2-----0----2---2---------0-2-2------0-4-0----------------------------------- 
A-----0--------------0---------------0------------------------------------------------- 
E------------0---------------0---------------0-------6----4----2-----6----4----2-------
		  

Full key step upFull key step up
Half key step upHalf key step up
Half key step downHalf key step down
Full key step downFull key step down
auto scroll beats size up size down change color hide chords drawings
tab show chords e-chords YouTube Clip e-chords hide all tabs e-chords go to top tab

share