John Denver

Annies Song

John Denver

tabs Beginner beginner

save to print version add songbook text version e-mail correct tuner
chordsukulelecavacokeyboardtabbassdrumsharmonicaflute Guitar Pro
close

there isn't a video lesson for this song

chords

Annies Song

	  		Tab:	el Sancco ([email protected]) 
 
This is a beautiful song, so here is the general idea. 
Enjoy this tab, but please tell me before you decide to 
take credit for it. 
 
 
                                      Rpt x3   ~ 
||-----------2--------|--3--------3--------||--2---------------| 
||--------3-----3-----|-----3--------3-----||--3----------3----| 
||*----2-----------2--|--------2--------2-*||*-2---------------| 
||*-0-----------------|--0----------------*||*-0---------------| 
||--------------------|--------------------||------------------| 
||--------------------|--------------------||------------------| 
  
|--------------------|--------------------|--------------------| 
|--3-----2-----0-----|--3--------3--------|--2--------2--------| 
|-----2-----2-----2--|--------0-----0-----|--------2-----2-----| 
|--0-----------------|-----0-----------0--|-----2-----------2--| 
|--------------------|--------------------|--0-----------------| 
|--------------------|--3-----------------|--------------------| 
  
|--------------------|--------------------|-----------2--------| 
|-----------3-----0--|--0-----2-----3-----|-----3--------3-----| 
|--------4-----4-----|-----0-----0-----0--|--2--------------2--| 
|-----4--------------|--------------------|--0-----4-----------| 
|--2-----------------|--------------------|--------------------| 
|--------------------|--3-----------------|--------------------| 
  
|-----------2--------|-----------2--------|--------------------| 
|--------3-----3-----|--------3-----3-----|--------0-----2-----| 
|-----2-----------2--|-----2-----------2--|--2--------2-----2--| 
|--------------------|--------------------|-----0--------------| 
|--4-----------------|--2-----------------|--0-----------------| 
|--------------------|--------------------|--------------------| 
  
|--------------------|--------------------|--------------------| 
|--3--------3--------|--2-----------------|--------------0-----| 
|--------0-----0-----|-----------2--------|-----------0-----4--| 
|-----0-----------0--|--------4-----4-----|--------2-----------| 
|--------------------|-----4-----------4--|-----2--------------| 
|--3-----------------|--2-----------------|--0-----------------| 
  
|--------------------|--------------------|--------------------| 
|--0-----2--------3--|--2--------2--------|--3--------3--------| 
|-----0-----0--------|--------2-----2-----|-----2--------2-----| 
|--------------0-----|-----2-----------2--|--------2--------2--| 
|--------------------|--0-----------------|--0-----------------| 
|--3-----------------|--------------------|--------------------| 
  
|--0-----------------|--------------------|--------------------| 
|--------2-----3-----|--3-----2-----0-----|--3--------3--------| 
|-----2-----------2--|-----2-----2-----2--|--------0-----0-----| 
|--------------------|--------------------|-----0-----------0--| 
|--0--------0--------|--0-----------------|--------------------| 
|--------------------|--------------------|--3-----------------| 
  
|--0-----------------|-----------2--------|--------------------| 
|-----------2--------|--------------3-----|--3-----2-----0-----| 
|--------2-----2-----|--------4--------4--|-----0-----0-----0--| 
|-----2-----------2--|-----4--------------|--------------------| 
|--0-----------------|--2-----------------|--------------------| 
|--------------------|--------------------|--3-----------------| 
  
|-----------2--------|-----------2--------|-----------2--------| 
|-----3--------3-----|--------3-----3-----|--------3-----3-----| 
|--2--------------2--|-----2-----------2--|-----2-----------2--| 
|--0-----4-----------|--------------------|--------------------| 
|--------------------|--4-----------------|--2-----------------| 
|--------------------|--------------------|--------------------| 
  
|--------------------|--------------------|--------------------| 
|--------0-----2-----|--3--------3--------|--2-----------------| 
|--2--------2-----2--|--------0-----0-----|-----------2--------| 
|-----0--------------|-----0-----------0--|--------4-----4-----| 
|--0-----------------|--------------------|-----4-----------4--| 
|--------------------|--3-----------------|--2-----------------| 
  
|--------------------|-----------------0--|-----------2--------| 
|--------------0-----|--2-----3-----------|--3-----3-----3-----| 
|-----------0-----0--|-----0-----0--------|-----2-----------2--| 
|--------2-----------|--------------2-----|--0-----------------| 
|-----2--------------|--0-----------------|--------------------| 
|--0-----------------|--------------------|--------------------| 
  
|--3--------3--------||-----------2--------|--3--------3-------| 
|-----3--------3-----||--------3-----3-----|-----3--------3----| 
|--------2--------2-*||-----2-----------2--|--------2--------2-| 
|--0----------------*||--0-----------------|--0----------------| 
|--------------------||--------------------|-------------------| 
|--------------------||--------------------|-------------------| 
                                              ~ 
|--2--------2--------|--3--------3--------|--2----------------|| 
|--------3-----3-----|-----3--------3-----|--3----------------|| 
|-----2-----------2--|--------2--------2--|--2----------------|| 
|--0-----------------|--0-----------------|--0----------------|| 
|--------------------|--------------------|-------------------|| 
|--------------------|--------------------|-------------------|| 
 
 
 
--------------------------------------------- 
Transcribed By SANCCO ([email protected]) 
--------------------------------------------- 
 

		  

auto scroll beats size up size down change color hide chords drawings
tab show chords e-chords YouTube Clip e-chords hide all tabs e-chords go to top tab

share