Joe Satriani

Somewhere Over The Rainbow

Joe Satriani

tabs Expert expert

save to print version add songbook text version e-mail correct tuner
chordsukulelecavacokeyboardtabbassdrumsharmonicaflute Guitar Pro
close

there isn't a video lesson for this song

chords

Somewhere Over The Rainbow

	  		
Somewhere Over The Rainbow ? Joe Satriani 
Tabbed By Sean Richey 
 
The best and most innovative guitar player?Joe Satriani     
 
I downloaded this of Morpheus, but I don?t think it?s on any of his CD?s.
 In between phrases there are some cool fills here and there but it?s too hard to figure out.
 And if you throw in some harmonics here and there it will sound even better 
 
(b) = bend 
/   = slide 
a.h.= artificial harmonics 
 
Main Riff: 
 
e:----------------------------------------------------------------------------- 
B:----------16----18(b)------------------------16/------------16h15p16--------- 
G:------------------------19-----15-17-19------------------17------------15---\1 bar fill 
D:---13----------------------------------------------13------------------------ 
A:----------------------------------------------------------------------------- 
E:----------------------------------------------------------------------------- 
                                                        a.h.  
e:----------------------------------------------------------------------------- 
B:----------------------------------------------------------------------------- 
G:-----------------------------13-----------------------12h13p12--------------- 
D:--------18---17----13-15-17--------15------12-13-15------------13----12-/-8-- 
A:--15------------------------------------------------------------------------- 
E:----------------------------------------------------------------------------- 
 
 
This part may sound wrong at first, but trust me this it the correct. 
 
Interval Part: 
 
E:----------------------------------------------------------------------------- 
B:----------------------------------------------------------------------------- 
G:--15-12--15-12--15-12--15-12--15-13--15-13--15-13--15-13--15/17---19--fill--- 
D:----------------------------------------------------------------------------- 
A:----------------------------------------------------------------------------- 
E:----------------------------------------------------------------------------- 
 
E:----------------------------------------------------------------------------- 
B:----------------------------------------------------------------------------- 
G:--15-12--15-12--15-12--15-12--15-14--17-14--17-14--17-14--17/19---fill------- 
D:----------------------------------------------------------------------------- 
A:----------------------------------------------------------------------------- 
E:----------------------------------------------------------------------------- 
 
 
 
Ending: 
 
E:----------------------------------------------------------------------------- 
B:----------16----18b-----------------------16-----------------------15-------- 
G:------------------------19-----15-17-19----------17-----14-15-17-------15---- 
D:---13------------------------------------------------------------------------ 
A:----------------------------------------------------------------------------- 
E:----------------------------------------------------------------------------- 
 
Do the main riff two times then the interval and repeat it over and over
 and the do the ending 
 

		  

auto scroll beats size up size down change color hide chords drawings
tab show chords e-chords YouTube Clip e-chords hide all tabs e-chords go to top tab

share