Jimi Hendrix

Voodoo Chile

Jimi Hendrix

tabs Beginner beginner

by  MARCREAM

save to print version add songbook text version e-mail correct tuner
chordsukulelecavacokeyboardtabbassdrumsharmonicaflute Guitar Pro
close

there isn't a video lesson for this song

chords

Voodoo Chile

Year: 1997 - Album: Electric Ladyland

	  		Solo da introdução(2x): 
E------------------------------------------ 
B------------------------------------------ 
G------------------------------------------ 
D---14-12----12----------14-12----14-14-12- 
A---------14----12-12-14-------14---------- 
E------------------------------------------ 
(essa parte logo abaixo ainda faz parte do solo) 
E------------------------------------ 
B------------------------------------ 
G------------------------------------ 
D---14-12----12----------14-12----14- 
A---------14----12-12-14-------14---- 
E------------------------------------ 
Final do solo de introdução: 
E------------------------------------------------ 
B------------------------------------------------ 
G------------------------------------14-12----12- 
D---14-12----12----------14-12----12-------14---- 
A-------14------12-12-14-------14---------------- 
E------------------------------------------------ 
Riff 1: 
E---------------------------- 
B---------------------------- 
G----------------------------- 
D---2-2-2-2-----2-2-2-2------ 
A---2-2-2-2-----2-2-2-2------ 
E---0-0-3-0-----2-0-3-0------ 
 
 
*Eu queria me desculpar pois não botei a música inteira... 
não botei alguns solos e riffs...e nem a letra...se alguem 
puder completar a música, por favor, complete...valeu 

		  

See also:

tabs Johnny Cash - Folsom Prison Blues (key of E) tabs Creedence Clearwater Revival - Fortunate Son tabs Johnny Rivers - Memphis tabs The Mamas and Papas - California dreaming (solo) tabs Janis Joplin - Summertime tabs Johnny Cash - Cats In The Cradle
e-chords

Other versions:

tabs Jimi Hendrix - Voodoo Chile
auto scroll beats size up size down change color hide chords drawings
tab show chords e-chords YouTube Clip e-chords hide all tabs e-chords go to top tab

share