Jimi Hendrix

Hino Americano

Jimi Hendrix

tabs Expert expert

by  VALLIM GUITAR

save to print version add songbook text version e-mail correct tuner
chordsukulelecavacokeyboardtabbassdrumsharmonicaflute Guitar Pro
close

there isn't a video lesson for this song

chords

Hino Americano

	  		 Hino Americano 
 
 
Verső do hino americano tocadas por Hendrix em Woodstock 
 
 
 
 
 
 
  
 
  
 
 
  Q  Q  E. S   Q  Q  Q    H    E. S   Q  Q  Q    H    E E   Q.   E Q 
|------------|----------|-4----8--6-|-4--------|----------|-8----6-4----| 
|-------4----|-------4--|-----------|-------3--|-4----4-4-|-------------| 
|----------5-|----5-----|-----------|----5-----|----------|-------------| 
|------------|-6--------|-----------|----------|----------|-------------| 
|------------|----------|-----------|----------|----------|-------------| 
|------------|----------|-----------|----------|----------|-------------| 
 
 
  H    E E   Q  Q  Q    Q  E E E. S   Q  Q  Q    H    E. S   Q  Q  Q 
|-3----1-3-|-4--4-----|-------------|----------|-4----8--6-|-4--------| 
|----------|-------4--|--------4----|-------4--|-----------|-------3--| 
|----------|----------|-5---------5-|----5-----|-----------|----5-----| 
|----------|----------|----6--------|-6--------|-----------|----------| 
|----------|----------|-------------|----------|-----------|----------| 
|----------|----------|-------------|----------|-----------|----------| 
 
 
  H    E E   Q.   E Q    H    E E   Q  Q  Q    Q  E E E E   Q  Q   Q 
|----------|-8----6-4--|-3----1-3-|-4--4-----|--------8-8-|-8--9--11--| 
|-4----4-4-|-----------|----------|-------4--|------------|-----------| 
|----------|-----------|----------|----------|-5----------|-----------| 
|----------|-----------|----------|----------|----6-------|-----------| 
|----------|-----------|----------|----------|------------|-----------| 
|----------|-----------|----------|----------|------------|-----------| 
 
 
   H    E E   Q  Q  Q    H    Q    Q.   E Q    H    E E   Q  Q  Q 
|-11----9-8-|-6--8--9--|-9----9--|-8----6-4--|-3----1-3-|-4--------| 
|-----------|----------|---------|-----------|----------|-------3--| 
|-----------|----------|---------|-----------|----------|----5-----| 
|-----------|----------|---------|-----------|----------|----------| 
|-----------|----------|---------|-----------|----------|----------| 
|-----------|----------|---------|-----------|----------|----------| 
 
 
                                    Q=94 Q=89    Q=8Q=75     Q=89 
  H    E E   Q  Q  E E   Q  Q  Q    Q  E E E E   Q  Q  E E   Q.   E E E 
|----------|-4--4--4-3-|-1--1--1--|-6--9-8-6-4-|-4--3------|-4----6-8-9-| 
|-4----4-4-|-----------|----------|------------|-------4-4-|------------| 
|----------|-----------|----------|------------|-----------|------------| 
|----------|-----------|----------|------------|-----------|------------| 
|----------|-----------|----------|------------|-----------|------------| 
|----------|-----------|----------|------------|-----------|------------| 
 
 
               Q=85  Q=80     Q=64 
   H    E  E    Q.    E  Q     H    Q 
|-11---------|--------------|----------*| 
|-------9-11-|-13----14-----|----------*| 
|------------|----------15--|-13-------*| 
|------------|--------------|----------*| 
|------------|--------------|----------*| 
|------------|--------------|----------*| 
 

		  

Full key step upFull key step up
Half key step upHalf key step up
Half key step downHalf key step down
Full key step downFull key step down
hide glossary

See also:

tabs Johnny Cash - Folsom Prison Blues (key of E) tabs Creedence Clearwater Revival - Fortunate Son tabs Johnny Rivers - Memphis tabs The Mamas and Papas - California dreaming (solo) tabs Janis Joplin - Summertime tabs Johnny Cash - Cats In The Cradle
e-chords

Other versions:

tabs Jimi Hendrix - Hino Americano
auto scroll beats size up size down change color hide chords drawings
tab show chords e-chords YouTube Clip e-chords hide all tabs e-chords go to top tab

share