Jimi Hendrix Experience

Wind Cries Mary

Jimi Hendrix Experience

tabs Beginner beginner

save to print version add songbook text version e-mail correct tuner
chordsukulelecavacokeyboardtabbassdrumsharmonicaflute Guitar Pro
close

there isn't a video lesson for this song

chords

Wind Cries Mary

	  		 wind cries mary 
tabbed by jamn all day 
 
The Wind Cries Mary 
Jimi Hendrix 
 
/ = slide up 
\ = slide down 
^ = hammer on/pull off, unless marked above with "B", in which case 
    it's a bend. 
~ = vibrato 
. = stacatto 
x = percussive strum 
 
* For notes marked with an '*' Jimi uses the 'thumb over the top' barre 
  chord shape and allows the bass note to ring. 
 
 
The Wind Cries Mary - Jimi Hendrix 
 
 
 
  (no 3rds)                           (no 3rds) 
  Eb E  F          Eb E   F           Eb E  F 
E ------------x-x-|--------------x-x-|------------x-x-| 
B ------------x-x-|--------------x-x-|------------x-x-| 
G 8-9---10----x-x-|8--9---10-----x-x-|8-9---10----x-x-| 
D 8-9---10----x-x-|8--9---10-----x-x-|8-9---10----x-x-| 
A 6-7---8-----x-x-|10-11--12-----x-x-|6-7---8-----x-x-| 
E 6-7---8-----x-x-|--------------x-x-|6-7---8-----x-x-| 
 
 
 
  Eb E   F                           C      Bb          F 
E ----------------------------------|-----------------|----------------------| 
B ----------------------------------|-----------------|----1-------1---1-----| 
G 8--9---10-------------------------|-----------------|-------2----0^2-0^2---| 
D 8--9---10-----------10-12-10------|---2-----3-------|--3------3------------| 
A 10-11--12--10-10^12----------12\--|3-----1----------|--------------------2-| 
E ----------------------------------|-----------------|1---------------------| 
                                                       * 
 
 
  C     Bb         F                   C       Bb     F 
E ----------------|-------------------|--------------|----------------------| 
B ----------------|--------1---1------|--------------|------1-----1---1-----| 
G ----------------|--------0^2-0^2----|--------------|------0^2---0^2-0^2---| 
D ---2-------3----|----3--------------|--------------|--3-3-----3-----------| 
A 3--------5----5-|-------------------|--------------|----------------------| 
E ------6---------|1-----------------1/8-x---7-6-----|1--------------------1/ 
                   *                                  * 
 
 
                        (no 3rds)                           (no 3rds) 
  G          Bb         Eb E  F       G          Bb         Eb E  F 
E ---------------------|-------------|---------------------|----------x-| 
B --3-5-3------6-8-6---|-------------|--3----------6-------|----------x-| 
G --4-4---4----7-7---7-|8-9---10-----|--4-5-4------7-8-7---|8-9---10--x-| 
D --5----------8-------|8-9---10-----|--5-5---5----8-8---8-|8-9---10--x-| 
A ---------------------|6-7---8------|---------------------|6-7---8---x-| 
E 3--------3/6---------|6-7---8-----8\3--------3/6---------|6-7---8---x-| 
  *          *                        *          * 
 
 
 
  Eb E   F                     C     Bb         F 
E ----------------------------|----------------|----------------------| 
B ----------------------------|----------------|------1-----1---1-----| 
G 8--9---10-10----10----10----|----------------|------0^2---0^2-0^2---| 
D 8--9---10----10----12-------|---2-----3------|--3-3-----3-----------| 
A 10-11--12----------------12\|3-----1---------|---------------------2| 
E ----------------------------|----------------|1---------------------| 
                                                * 
 
 
  C     Bb         F                    C       Bb       F 
E ----------------|----x-x-x-x-3-1-----|--3---2-1-------|---------------------| 
B ----------------|----x-x-x-x-3-1-----|--5---4-3-------|------1-----1---1----| 
G --------3---3---|----x-x-x-x-----2---|--5---4-3-------|------0^2---0^2-0^2--| 
D ---2----3^5-3---|----x-x-x-x---------|--5---4-3-------|--3-3-----3----------| 
A 3---------------|----x-x-x-x---------|--3---2-1-------|---------------------| 
E ------6---------|1-1-x-x-x-x---------|----------------|1-------------------1/ 
                                                         * 
 
 
                            (no 3rds) 
  G            Bb           Eb E  F          G            Bb 
E -------------------------|----------------|-------------------------| 
B --3-3-5^3-3----6-6-8^6-6-|----------------|--3-3-5^3-3----6-6-8^6-6-| 
G --4-4-4---4----7-7-7---7-|8-9---10--------|--4-4-4---4----7-7-7---7-| 
D ----------5------------8-|8-9---10--------|----------5------------8-| 
A -------------------------|6-7---8---------|-------------------------| 
E 3----------3/6-----------|6-7---8--------8\3----------3/6-----------| 
  *            *                             *            * 
 
 
  (no 3rds) 
  Eb E  F          Eb E  F 
E -------------x--|----------------| 
B -------------x--|4-5---6---------| 
G 8-9---10-----x--|3-4---5---------| 
D 8-9---10-----x--|5-6---7---------| 
A 6-7---8------x--|----------------| 
E 6-7---8------x--|----------------| 
 
 
 
solo 
 
E ----x-13\-x-x-------------------|-----------------------------| 
B ----x-13\-x-x-13----------------|-----------------------------| 
G ----------x-x-12^14-12----12----|-----------------------------| 
D ----------x-x----------15----15-|----15^17^15~-17-15-------15-| 
A ----------x-x-------------------|17~-----------------15^17----| 
E /13-------x-x-------------------|-----------------------------| 
 
 
 
E ----x-13\-x-x-------------------|-------------------------| 
B ----x-13\-x-x-13----------------|-------------------------| 
G ----------x-x-12^14-12----12----|-------------------------| 
D ----------x-x----------15----15-|---15^17--------------15-| 
A ----------x-x-------------------|17~------17~~~-----17----| 
E /13-------x-x-------------------|-------------------------| 
 
 
 
E ----x-13\-x-x-------------------|--------------------------------| 
B ----x-13\-x-x-13----------------|--------------------------------| 
G ----------x-x-12^14-12----12----|--------------------------------| 
D ----------x-x----------15----15-|---15^17-17~~~-----17-15--------| 
A ----------x-x-------------------|17~----------------------17-15\-| 
E /13-------x-x-------------------|--------------------------------| 
 
 
 
                            .  B 
E -------------------------|-------6-------------------| 
B x--x--x-x-x--------------|--8^10---8-6---6-8-6-------| 
G x--x--x-x-x-7---7--------|-------------7---------6---| 
D x--x--x-x-x-7^9---9~-----|---------------------8-----| 
A x--x--x-x-x--------------|---------------------------| 
E ---------------------0-3-|6------------------------6-| 
                            * 
 
 
      B 
E --------9-----------------------|13----13---------------------| 
B --12^13---12-9----9-12-9--------|13^15-13--13----------13-----| 
G ---------------11---------9~~---|----------12^14-12----12^14--| 
D --------------------------------|-------------------15--------| 
A --------------------------------|-----------------------------| 
E 9-------------------------------|-----------------------------| 
  * 
 
        . 
E ---------------------------| 
B ---------------------------| 
G ---------------------------| 
D 15^17-19-------------------| 
A ---------17-19-------------| 
E ---------------18-17~-17\--| 
 
 
 
  C     Bb         F                    C     Bb 
E ----------------|--------------------|----------------| 
B ----------------|----1------1---1----|----------------| 
G ----------------|-------2---0^2-0^2--|----------------| 
D ---2-----3------|--3------3----------|---2-------3----| 
A 3-----1---------|-------------------2|3--------5----5-| 
E ----------------|1-------------------|------6---------| 
                   * 
 
 
  F                    C                     Bb 
E ----1-3-1-----------|-------------------------------------| 
B ----1-----3-1-------|--8--8--8--8----8--8---6-6-6-6---6-6-| 
G --------------3-2---|--9--9--9--10^9-9--9---7-7-7-8^7-7-7-| 
D --3-----------------|--10-10-10-10---10-10--8-8-8-8---8-8-| 
A --------------------|-------------------------------------| 
E 1-------------------|8---------------------6--------------| 
  *                    *                     * 
 
                                                 (no 3rds) 
  F                     G           Bb           Eb E  F 
E ---------------------|------------------------|-----------| 
B ------1-----1---1----|--3-3-3---3---6-6-6---6-|-----------| 
G ------0^2---0^2-0^2--|--4-4-5^4-4---7-7-8^7-7-|8-9---10---| 
D --3-3-----3----------|--5-5-----5---8-8-----8-|8-9---10---| 
A ---------------------|------------------------|6-7---8----| 
E 1-------------------1/3-----------6-----------|6-7---8---8\ 
  *                     *           * 
 
                           (no 3rds) 
  G           Bb           Eb E  F          Eb E  F 
E ------------------------|-------------x--|----------------| 
B --3-3-3---3---6-6-6---6-|-------------x--|4-5---6-x-------| 
G --4-4-5^4-4---7-7-8^7-7-|8-9---10-----x--|3-4---5-x-7-5---| 
D --5-5-----5---8-8-----8-|8-9---10-----x--|5-6---7-x-----7\| 
A ------------------------|6-7---8------x--|----------------| 
E 3-----------6-----------|6-7---8------x--|----------------| 
  *           * 
 
 
  C  .  Bb .        F                      C .  Bb      F 
E -----------------|----------------------|------------|----x-x-x-x-3-1---| 
B ---1-----3-------|------1-----1---1-----|--1---------|----x-x-x-x-3-1-1-| 
G ---0-----3-------|------0^2---0^2-0^2---|--0---3---3-|----x-x-x-x-----2-| 
D ---2-----3-------|--3-3-----3-----------|--2---3^5-3-|--3-x-x-x-x-------| 
A 3-----1----------|---------------------2|3-----------|----x-x-x-x-------| 
E -----------------|1---------------------|-----6------|1---x-x-x-x-------/ 
                    * 
 
 
                                                            (no 3rds) 
  C       Bb    F                   G           Bb          Eb E  F 
E -------------|----1-3-1----------|-----------------------|------------| 
B -------------|----1-----3-1------|--3-5-3-------6-8-6----|------------| 
G -------------|--------------3-2--|--4-4---4-----7-7---7--|8-9---10----| 
D -------------|--3----------------|--5-----------8--------|8-9---10----| 
A -------------|-------------------|-----------------------|6-7---8-----| 
E 6-x---7-6----|1-----------------1/3---------3/6----------|6-7---8----8\ 
                *                   *           * 
 
 
                          (no 3rds) 
  G           Bb          Eb E  F          Eb E    F 
E -----------------------|-------------x--|---------------x--| 
B --3-----------6--------|-------------x--|---------------x--| 
G --4-5-4-------7-8-7----|8-9---10-----x--|8--9----10-----x--| 
D --5-5---5-----8-8---8--|8-9---10-----x--|8--9----10--------| 
A -----------------------|6-7---8------x--|10-11---12--------| 
E 3---------3/6----------|6-7---8------x--|------------------| 
  *           * 
 
 
 
E 8/10\8------------x--|--------------------------|-------------------------| 
B 8/10\8--13^10-----x--|--------------------------|-------------------------| 
G --------12^10-----x--|8--9----10----------------|8-9---10-----------------| 
D ---------------------|8--9----10-12-10----------|8-9---10-----------------| 
A ---------------------|10-11---12-------12-10----|6-7---8--------8-10-8----| 
E ---------------------|-----------------------13-|6-7---8--8^10---------10-| 
 
 
 
             . 
E ----------------------|---------------------|-----------------------| 
B -----------10----10---|13-10----10----10----|10---------------------| 
G 8--9----10----12---10-|------12-10----10----|10---------------------| 
D 8--9----10------------|---------10----10----|10---------------------| 
A 10-11---12------------|------------12----12-|12---------------------| 
E ----------------------|---------------------|13---------------------| 
 

		  

Full key step upFull key step up
Half key step upHalf key step up
Half key step downHalf key step down
Full key step downFull key step down
hide glossary

See also:

tabs Simon & Garfunkel - Sounds of silence tabs R.E.M. - Everybody Hurts tabs Guns N' Roses - Knockin' On Heaven's Door tabs John Mayer - Belief tabs The Wonders - That Thing You Do tabs Cheap Trick - The Flame
e-chords

Other versions:

tabs Jimi Hendrix Experience - Wind Cries Mary
auto scroll beats size up size down change color hide chords drawings
tab show chords e-chords YouTube Clip e-chords hide all tabs e-chords go to top tab

share