Jimi Hendrix Experience

Purple Haze

Jimi Hendrix Experience

tabs

by  FATPETE

save to print version add songbook text version e-mail correct tuner
chordsukulelecavacokeyboardtabbassdrumsharmonicaflute Guitar Pro
close

there isn't a video lesson for this song

chords

Purple Haze

	  		
 
 
 E |-------------------------|----------------------------|-------------------------|------------------------| B |-------------------------|----------------------------|----------8b-------------|------------------------|  
 G |-------------------------|----------------------------|-------7-----------------|------------------------| 
 D |-----------8--------8----|--------------%-------------|---/9--------7--------(7)|--5---------------------| 
 A |-------------------------|----------------------------|-------------------------|-----5-----5/7----------| 
 E |------6--------6---------|----------------------------|-------------------------|--------0---------------| 
 
                                                                                   
                   ~~~~~~~~~~~~~                  ~~~~~~~~~~                   ~~~~~~~~~~            ~~~~~~~~~ 
 E |-------------------------|---------------------------|-------------------------|-------------------------| 
 B |--------------8b---------|---------------------------|-------------------------|-------------------------|  
 G |----------7--------------|---------------------------|-------------------------|-------------------------| 
 D |----/9------------7------|-(7)\/5--------------------|--------5---7---7B---5---|-------5-----------------| 
 A |-------------------------|----------5-------5/7------|--5/7--------------------|-----------0-----3-----0-| 
 E |-------------------------|--------------0------------|-------------------------|--------------0----------| 
 
                         
                          ~~~~~~~~                     ~~~~~~~~~~~ 
 E |-------------------------|----------------------------|-------------------------|------------------------| 
 B |-------------------------|----------------------------|-------------------------|------------------------|  
 G |-------------------------|------------------7---7--9--|-------0-----------------|------------------------| 
 D |--------5--7B----5h7-(7)-|-----5-------/9-------------|-------------------------|------------------------| 
 A |---5/7-------------------|---------5------------------|-------------------------|------------------------| 
 E |-------------------------|----------------------------|-------------15\---------|------------------------| 
 
 
     E7+/9                                                G                     A 
 E |--------------------------------------------------|------------------------------------------------------| 
 B |---------8---8---------8---8---------8------------|--3------3----3---------5-----5---5---7-p-5---5-------|  
 G |---------7---7---------7---7---------7------------|--4------4----4---------6-----6---6---6-------6-------| 
 D |---------6---6---------6---6---------6------------|--5------5----5---------7-----7---7---7-------7-------| 
 A |---------7---7---------7---7---------7------------|------------------------------------------------------| 
 E |--0-----------------------------------------------|--3------3----3----3----5-----5-------5-------5-------| 
                                                                                    
 
     E7+/9                                                G                     A 
 E |--------------------------------------------------|------------------------------------------------------| 
 B |---------8---8---------8---8----8----8------------|--------------3---------------5---5---7-p-5---5-------|  
 G |---------7---7---------7---7----7----7------------|--------------4---------------6---6---6-------6-------| 
 D |---------6---6---------6---6----6----6------------|--------------5---------------7---7---7-------7-------| 
 A |---------7---7---------7---7----7----7---7\-------|------------------------------------------------------| 
 E |--0-----------------------------------------------|--3------3----3----3----5-----5-------5-------5-------| 
 
 
     E7+/9                                G                 A                           E7+/9 
 E |----------------------------------|----------3----------------------------------|---------------------------| 
 B |-------8---8-----8---8---8--------|--3-------3---------5----5---5---7-p-5---5---|-----8--8----8-8--8---8----| 
 G |-------7---7-----7---7---7--------|--4-------4---------6----6---6---6-------6---|-----7--7----7-7--7---7----| 
 D |-------6---6-----6---6---6--------|--5-------5---------7----7---7---7-------7---|-----6--6----6-6--6---6----| 
 A |-------7---7-----7---7---7---7\---|---------------------------------------------|-----7--7----7-7--7---7----| 
 E |--0-------------------------------|--3---3--------3----5----5-------5-------5---|--0------------------------| 
          Pur-ple Haze... 
 
 
      G                  A                             E7+/9 
 E |------------------------------------------------|-----------------------------------------| 
 B |-----------3---------5-----5---5---7-p-5---5----|----------8------8------8----8------8----| 
 G |-----------4---------6-----6---6---6-------6----|----------7------7------7----7------7----| 
 D |-----------5---------7-----7---7---7-------7----|----------6------6------6----6------6----| 
 A |------------------------------------------------|----------7------7------7----7------7----| 
 E |--3----3---3----3----5-----5-------5-------5----|---0-------------------------------------| 
 
      G                     A                                E5 
 E |------------------------------------------------------|---------------------|-------------------------------| 
 B |--3------3----3---------5-----5---5---7-p-5---5-------|---------------------|-------------------------------|  
 G |--4------4----4---------6-----6---6---6-------6-------|---------------------|-------------------9/11--9---7-| 
 D |--5------5----5---------7-----7---7---7-------7-------|---------------------|-------------------------------| 
 A |------------------------------------------------------|---------------------|-------------------7/9---7---5-| 
 E |--3------3----3----3----5-----5-------5-------5-------|--0------------------|-------------------------------| 
 
 
                                    ~~~~~~~~~      E7+/9                           G                  A 
 E |------------------------------------------|--------------------------------|---------------------------------| 
 B |-------------8b----------------8b---------|------8--------8-----8-8-8-8----|------------3--------5---5-5-5---|  
 G |--------7----------------7----------------|------7--------7-----7-7-7-7----|------------4--------6---6-6-6-\-| 
 D |---/9-------------/9----------------------|------6--------6-----6-6-6-6----|------------5--------7---7-7-7-\-| 
 A |------------------------------------------|------7--------7-----7-7-7-7----|---------------------------------| 
 E |------------------------------------------|--0---------------------------0-|--3----3----3----3---5---5---5---| 
 
     E7+/9                                 G                  A                            E7+/9 
 E |-----------------------------------|-----------------------------------------------|--------------------------------| 
 B |--------8--------------------------|-----------3---------------5---5---7---5---5---|-----8-----8--------------------| 
 G |--------7--------------------------|-----------4---------------6---6---6---6---6---|-----7-----7--------------------| 
 D |--------6--------------------------|-----------5---------------7---7---7---7---7---|-----6-----6--------5-----------| 
 A |--------7---------5h7-5------------|-----------------------------------------------|-----7-----7-----5----7-5-------| 
 E |--0----------5h7---------7--6--5---|--3----3---3----3----5-----5-------5-----------|--0------------7----------7-6-5-| 
 
      G                     A                                E5 
 E |------------------------------------------------------|-------------------------|-------------------------------| 
 B |--------------3---------5-----5---5---7-p-5---5-------|-------------------------|-------------------------------|  
 G |--------------4---------6-----6---6---6-------6-------|-------------------------|-------------------9/11--9---7-| 
 D |--------------5---------7-----7---7---7-------7-------|-------------------------|-------------------------------| 
 A |------------------------------------------------------|-------------------------|-------------------7/9---7---5-| 
 E |--3------3----3----3----5-----5-------5-------5-------|--0----------------------|-------------------------------| 
 
 
                                         A                                B        ~~~~~~~           ~~~~~~ 
 E |----------------------------------|------------------------------|-------------15---------------15-------12--| 
 B |----------------8bb----------8\(0)|-----------12B------------12B-|-------------------------------------------|  
 G |-----------7-------------7--------|-------9--------------9-------|--------12----------------12---------------| 
 D |-----/9-------------/9------------|-/11------------/11-----------|---/14---------------/14-------------------| 
 A |----------------------------------|------------------------------|-------------------------------------------| 
 E |----------------------------------|------------------------------|-------------------------------------------| 
 
                   
                                                             Guitar solo (w/Octavia) 
        D   ~~~~~~      ~~~~~~                               E7+/9 
 E |------------------------------------------------------|------------------------------------------------------| 
 B |---------------15----------15--15-----15-----15-------|------------------------------------------------------|  
 G |------14B---------14b----------14B----14B----14B------|--16--16-h-18-18-h-18-p-16--16\14----14h16p14---14\13-| 
 D |------------------------------------------------------|------------------------------------------------------| 
 A |------------------------------------------------------|------------------------------------------------------| 
 E |------------------------------------------------------|------------------------------------------------------| 
 
        F#5                 D5                             E7+/9 ~~~~~~~~~~~~~ 
 E |------------------------------------------------------|------------------------------------------------------| 
 B |------------------------X-----------------------------|------------------------------------------------------|  
 G |---13/14--------14B-----X----------12---14--12--------|----12---------------11/12\11--11---------------------| 
 D |-------------------------------14---------------14----|---------------------------------------14-----12------| 
 A |------------------------------------------------------|------------------------------------------------------| 
 E |------------------------------------------------------|------------------------------------------------------| 
 
        F#5                        D5                        E7+/9                                        ~~~~~~~~~ 
 E |------------------------------------------------------|------------------------------------------------------| 
 B |------------------------------------------------------|------------------------------------------------------|  
 G |------------------------------------------------------|------------------------------------------------------| 
 D |--------12--14--12---11--12-----------------14---16---|---(16)----14h16p14\12--12/14--14----14/16---12-------| 
 A |------------------------------------14/16-------------|------------------------------------------------------| 
 E |------------------------------------------------------|------------------------------------------------------| 
 
 
 
         F#5                          D5                     E7+/9 
 E |------------------------------------------------------|----------------14-------12h14p12------12-------------| 
 B |---------------------------------------17\------------|----------------------------------15-------14h15p14---|  
 G |------------------------------------------------------|--11---12---------------------------------------------| 
 D |-----16--12--16--12--16-----12-------------12---14----|------------------------------------------------------| 
 A |------------------------------------------------------|------------------------------------------------------| 
 E |------------------------------------------------------|------------------------------------------------------| 
 
 
        F#5                                         E5            ~~~~~~~~~~                      ~~~~~~~~~~~ 
 E |--------------------------------------------||-------------------------------|-----------------------------| 
 B |-----14---12B---12h14h12--------15----------||------------8b-----------------|-----------------------------|  
 G |-------------------------14B---------14B----||--------7----------------------|-----------------------------| 
 D |--------------------------------------------||--/9------------7----------(7)\|/5---------------------------| 
 A |--------------------------------------------||-------------------------------|------5-------5/7------------| 
 E |--------------------------------------------||-------------------------------|----------0------------------| 
 
 
                      ~~~~~~~~                     ~~~~~~~~~~~                       ~~~~~~~~~~                  ~~~~~~~~~~~~~                  ~~~~~~~~~~~~                      ~~~~~~~~~        ~~~~~~~~~ 
 E |-------------------------|-----------------------------------|-------------------------------------------| 
 B |--------------8b---------|-----------------------------------|-------------------------------------------|  
 G |----------7--------------|-----------------------------------|-------------------------------------------| 
 D |----/9------------7------|-(7)\/5----------------------------|-----5h7-7b--7B-------------------5--------| 
 A |-------------------------|----------5-------5/7--------------|-/7----------------------------------7-----| 
 E |-------------------------|--------------0------------------0-|-------------------------------------------| 
 
                        
                          ~~~~~~~~~~                     ~~~~~~~~~~~~~                       ~~~~~~~~~~ 
 E |-------------------------------------|--------------------------------|----------------------------------|| 
 B |-------------------------------------|-----------8b-------------------|----------------------------------|| 
 G |----------------------------------(0)|------7-------------------------|--------------------------------X-|| 
 D |----5h7--7-7B---7p5------------------|-/9------------7------------(7)\|/5------------------------------X-|| 
 A |-------------------------------------|--------------------------------|------5----------5/7------------X-|| 
 E |---------------------3---------------|--------------------------------|------------0-----------------0---|| 
 
 
     E7+/9                                G                 A                           E7+/9 
 E |----------------------------------|---------------------------------------------|---------------------------| 
 B |-------8---8-----8---8---8----X\--|------3--3--3---3-/-5----5---5---7---5-------|-----8--8----8-8--8---8----| 
 G |-------7---7-----7---7---7----X\--|------4--4--4---4-/-6----6-------6-------6---|-----7--7----7-7--7---7----| 
 D |-------6---6-----6---6---6--------|------5--5--5---5-/-7----7-------------------|-----6--6----6-6--6---6----| 
 A |-------7---7-----7---7---7--------|---------------------------------------------|-----7--7----7-7--7---7----| 
 E |--0-------------------------------|--3---3--3--3---3-/-5----5-------------------|--0----------------------0-| 
 
 
      G                  A                             E7+/9 
 E |------------------------------------------------|-----------------------------------------------| 
 B |------3----3----3-/--5-----5---7---7-p-5-----0--|----------8------8---8----8---8----------------| 
 G |------4----4----4-/--6-----6---6---6-------6----|----------7------7---7----7---7----------------| 
 D |------5----5----5-/-----------------------------|----------6------6---6----6---6------6---------| 
 A |------------------------------------------------|----------7------7---7----7---7-----------7\---| 
 E |--3---3----3----3-/--5--------------------------|---0-------------------------------------------| 
 
 
      G                     A                          E5   
 E |------------------------------------------------|-----------------------------------------------| 
 B |--3---3----3------------5------8\7----------5---|-----------------------------------------------| 
 G |--4---4----4------------6------6----------------|-----------------------------------------------| 
 D |--5---5----5------------7------7----------------|-----------------------------------------------| 
 A |------------------------------------------------|-----------------------------------------------| 
 E |--3---3----3------------5-----------------------|---0-------------------------------------------| 
 
 
 
 E |------------------------------------------------------|--------------------------------------------------| 
 B |------------------------------------------------------|------------8bb---------------------8bb------(8)\-|  
 G |----------------------------9/11----9------7----------|-------7---------------------7--------------------| 
 D |------------------------------------------------------|--/9-------------------/9-------------------------| 
 A |----------------------------7/9-----7------5----------|--------------------------------------------------| 
 E |------------------------------------------------------|--------------------------------------------------| 
 
                                        B                                   D                         D# 
      A(sus2)                  ~~~~~~~~~~~~                       ~~~~~~~~~~~~ 
 E |-------------------------------|----------------------------------|-----------------------------------------| 
 B |-------------------------------|----------------------------------|---------------12--14-15--14 12h14p12----| 
 G |-------------------------12----|---(12)-----------------9----12---|----(12)------------------------------14-| 
 D |--------------------12---------|-----------------/11--------------|-----------------------------------------| 
 A |-------------/14---------------|----------------------------------|-----------------------------------------| 
 E |-------------------------------|----------------------------------|-----------------------------------------| 
    Gtr.I 
 
 E |-----------0----0---0----------|-----------0----0------------0----|-----------------------------------------| 
 B |-----------0----0---0----------|-----------0----0---0---0----0----|-----------------------7---7-----8----8--| 
 G |---2-------2----2---2----2/4---|-----------4----4---4---4----4----|------7------7----7----7---7-----8----8--| 
 D |---2------------2---2----2-----|----------------------------------|------7------7----7----7---7-----8----8--| 
 A |---0---------------------0/2---|-----------2----2---2---2----2----|------5------5----5----5---5-----6----6--| 
 E |---0---------------------------|----0---------------0---0---------|------0------0----0----------------------| 
    Gtr.II 
 
 
     E7+/9                                 F#5            D5                 E7+/9 
           ~~~~~~     ~~~~~~~~~~~~~~~~~~~~~~~~~~~~~~~~~~~~~~~~~~~~~~        ~~~~~~~~~~~~~~~~~~~~~~~~~~~~~~~~~~~~~~  
 E |----------------------------------|----------------------------------|-----------------------------------------| 
 B |-------------15B----15--15--15-15-|--15---15-15-15-15-15-15-15--15B--|--15--15--15--15--15---15---15---15---15-| 
 G |-----12---------------------------|----------------------------------|-----------------------------------------| 
 D |----------------------------------|----------------------------------|-----------------------------------------| 
 A |----------------------------------|----------------------------------|-----------------------------------------| 
 E |----------------------------------|----------------------------------|-----------------------------------------| 
    Gtr.I                                                                      (pick randomly) 
 E |----------------------------------|----------------------------------|-----------------------------------------| 
 B |-------------8------8-------------|----------------------------------|-----------------------------------------| 
 G |-------------7------7-------------|----0-------0----7---7----6---6---|-----\\\\\\\\\\\\\\\---------------------| 
 D |-------------6------6---9--9--9h11|-------0----0---------------------|----2-\\\\\\\\\\\\\\\-0------------------| 
 A |-------------7------7---7--7------|-----------------5---5----4---4---|-----------------------------------------| 
 E |-----0------------------0--0------|----------------------------------|-----------------------------------------| 
    Gtr.II    
 
 
 
      F#5             D5                 E7+/9                              F#5                   D5 
 
 E |----------------------------------|----------------------------------|-----------------------------------------| 
 B |--15---15--15-15-15-15--15--15-15-|--15---15-15-15-15-15-15-15--15---|--15--15--15--15--15---15---15---15---15-| 
 G |----------------------------------|----------------------------------|-----------------------------------------| 
 D |----------------------------------|----------------------------------|-----------------------------------------| 
 A |----------------------------------|----------------------------------|-----------------------------------------| 
 E |----------------------------------|----------------------------------|-----------------------------------------| 
    Gtr.I                                                                                      
 E |----------------------------------|----------------------------------|-----------------------------------------| 
 B |----------------------------------|----------------------------------|-----------------------------------------| 
 G |-----\\\\\\\\\\\\\\\--------------|------\\\\\\\\\\\\\\\\\\----------|-----\\\\\\\\\\\\\\\\\\\\----------------| 
 D |-----2\\\\\\\\\\\\\\\0------------|------2\\\\\\\\\\\\\\\\\\0--------|----2-\\\\\\\\\\\\\\\\\\\\0--------------| 
 A |----------------------------------|----------------------------------|-----------------------------------------| 
 E |----------------------------------|----------------------------------|-----------------------------------------| 
    Gtr.II     
 
 
     E7+/9                                                                          
      ~~~~~~~~~~~~~~~~~~~~~                                  F#5                       D5                            
 E |-----------------------------------------------------|-----------------------------------------------------| 
 B |----15----15---15-15-15------15B-----15^(20)-15^(18)-|---15B----15^(18)---15---15--15--15--15B-15^(18)-15B-|  
 G |-----------------------------------------------------|-----------------------------------------------------| 
 D |-----------------------------------------------------|-----------------------------------------------------| 
 A |-----------------------------------------------------|-----------------------------------------------------| 
 E |-----------------------------------------------------|-----------------------------------------------------| 
 
 
       E7+/9                                                  F#5                        D5 
              ~~~~~~~~~~~~~~~~~~~~~~~~~~~~~~~~~~~~~~~~~~~~~~~~~~~~~~~~~~~~~~~~~~~~~~~~~~~~~~~~~~~~~~~~~~~~~~~        
 E |-----------------------------------------------------|-----------------------------------------------------| 
 B |----15B---15---15----15----15----15----15----15---15-|-15---15---15---15---15---15---15---15---15---15--15-|  
 G |-----------------------------------------------------|-----------------------------------------------------| 
 D |-----------------------------------------------------|-----------------------------------------------------| 
 A |-----------------------------------------------------|-----------------------------------------------------| 
 E |-----------------------------------------------------|-----------------------------------------------------| 
 
 
       E7+/9                                                  F#5                        D5 
                               ~~~~~~~~~~~~~~~~~~~~~~~~~~~~~~~~~~~~~~~~~~~~~~~~~~~~~~~~~~~~~~~~~~~~~~~~~~~~~~        
 E |-----------------------------------------------------|-----------------------------------------------------| 
 B |----15^(18)----------15B---15----15----15----15---15-|-15---15---15---15---15---15---15---15---15---15--15-|  
 G |-----------------------------------------------------|-----------------------------------------------------| 
 D |-----------------------------------------------------|-----------------------------------------------------| 
 A |-----------------------------------------------------|-----------------------------------------------------| 
 E |-----------------------------------------------------|-----------------------------------------------------| 
 
       E7+/9                                                  F#5                        D5 
        ~~~~~~~~~~~~~~~~~~~~~~~~~~~~~~~~~~~~~~~~~~~~~~~~~~~~~~~~~~~~~~~~~~~~~~~~~~~~~~~~~~~~~~~~~~~~~~~~~~~~~~~      
 E |-----------------------------------------------------|-----------------------------------------------------| 
 B |----15---15---15-----15----15----15----15----15---15-|-15---15---15---15---15---15---15---15---15---15--15-|  
 G |-----------------------------------------------------|-----------------------------------------------------| 
 D |-----------------------------------------------------|-----------------------------------------------------| 
 A |-----------------------------------------------------|-----------------------------------------------------| 
 E |-----------------------------------------------------|-----------------------------------------------------| 
               Pur  -  ple  Haze...                                                                     fade out 

		  

Full key step upFull key step up
Half key step upHalf key step up
Half key step downHalf key step down
Full key step downFull key step down
hide glossary

See also:

tabs Simon & Garfunkel - Sounds of silence tabs R.E.M. - Everybody Hurts tabs Guns N' Roses - Knockin' On Heaven's Door tabs John Mayer - Belief tabs The Wonders - That Thing You Do tabs Cheap Trick - The Flame
e-chords

Other versions:

tabs Groove Armada - Purple haze tabs Jimi Hendrix - Purple Haze tabs Jimi Hendrix Experience - Purple Haze tabs Jimi Hendrix Experience - Purple Haze (ver. 2) tabs Jimi Hendrix - Purple Haze (ver. 3) tabs Jimi Hendrix - Purple Haze Intro
auto scroll beats size up size down change color hide chords drawings
tab show chords e-chords YouTube Clip e-chords hide all tabs e-chords go to top tab

share