Jimi Hendrix Experience

Changes

Jimi Hendrix Experience

tabs Advanced advanced

save to print version add songbook text version e-mail correct tuner
chordsukulelecavacokeyboardtabbassdrumsharmonicaflute Guitar Pro
close

there isn't a video lesson for this song

chords

Changes

	  		With wah-wah effect 
tabbed MetalSkater13 
 
< >= Tune up 1 
( )= tune back down 
{ }= tune up 1/4 
 
Intro 
Eb-------------------------------------------------------------------------- 
Bb-------------------------------------------------------------------------- 
Gb--------------------12---------------<14>--(14)-12------------12---------- 
Db----------14-12-14------14-12---------------------------------12---------- 
Ab------------------------------{15}--12---------14---14-12-14------14-12--- 
Eb------------------------------------------------------------------------15 
 
Eb---------------- 
Bb----<15>----(15) 
Gb---------------- 
Db---------------- 
Ad---------------- 
Eb-12------------- 
 
Verse 
 
Eb------------------------------------------------------------------------- 
Bb------------------------------------------------------------------------- 
Gb------------------------------------------------------------------------- 
Db--------------9-9-9---------------------------------------------------7-- 
Ab--------------x-x-x-------7-9-7-----------------------------7-9-7-9-7---- 
Eb------0---0---7-7-7---7-9-----------0----0---7---7-0-0-7-9--------------- 
 
This is the Actual song and right way to play it  
sorry the last one i submited i forgot to put experience. 
Jimi Hendrix The best guitarist EVER 
 

		  

See also:

tabs Simon & Garfunkel - Sounds of silence tabs R.E.M. - Everybody Hurts tabs Guns N' Roses - Knockin' On Heaven's Door tabs John Mayer - Belief tabs The Wonders - That Thing You Do tabs Cheap Trick - The Flame
e-chords

Other versions:

tabs 3 Doors Down - changes tabs Gamma Ray - Changes tabs Jimi Hendrix Experience - Changes tabs John Frusciante - Changes tabs Three Doors Down - Changes tabs Tupac Shakur - Changes (acoustic)
auto scroll beats size up size down change color hide chords drawings
tab show chords e-chords YouTube Clip e-chords hide all tabs e-chords go to top tab

share