Jimi Hendrix Experience

Angel (acoustic)

Jimi Hendrix Experience

tabs Intermediate intermediate

save to print version add songbook text version e-mail correct tuner
chordsukulelecavacokeyboardtabbassdrumsharmonicaflute Guitar Pro
close

there isn't a video lesson for this song

chords

Angel (acoustic)

	  		Standard Tuning ; P = Pull off ; H = Hammer on 
 
Its not the standard version of the song its the acoustic version so make a note on that.
Spent allot of Time on this tab Enjoy it. If your a Hendrix fan like i am i know you will. 
 
-7-----------0-----------------5-----------0--------------------------------- 
-9-----9-----7-----------7-----7-----7-----5-----------5-----0-----------12-- 
-8--8-----8--4--------4-----4--6--6-----6--2--------2-----2--11-----------9-- 
-------------------6-----------------------------4--------------------9--11-- 
----------------6-----------------------------4--------------------11----11-- 
-0-----------0-----------------0-----------0--------------------0---------0-- 
 
-----0-----------------------------------0--------------------0-----7--5--- 
-14--5-----------------------5-----------5--0-----------0--3--------7--5--- 
-11--2-----2-----------------2--------2--2--2--------0--0--4-----4--------- 
-13--4--4--------4--------4-----4-----4--4--4--------0--------0------------ 
-13--4--------4-----4-----4-----4--4--4------------------------------------ 
-----0-----------------0-----------0-----------2/3------------------------- 
 
-0H3P0--0-------------------------------------------------1--1--3--5-------- 
-1------1-----------------1--1-------------1--1--1P0H1P0--1--1--1--------0-- 
-2------2--0--2--0-----0--2--0----------0--0-----0---0----2--2--3--5-------- 
--------------------2--0-----0--2P1--0-------------------------------------- 
-0------------------------------2P0--------3-------------------------------- 
-------------------------------------3--------------------------------1--3-- 
 
----------------------------------------------------0-----7--5--0H3P0--0----------- 
-------0-----------3-----1--1-----------------0--3--------7--5--1------1----------- 
----0-----2--------2-----0--0-----0--------0--0--4-----4--------2------2--0--2--0-- 
-0--------------0-----0--------0-----0-----0--------0------------------------------ 
----------------------------------------------------------------------------------- 
-------------3--------------------------3------------------------------------------ 
 
---------------------------------------1--1--3--5------------------------------------ 
-------1--1-------------1--1--1P0H1P0--2--2--1-----6--0--------0-----------1--------- 
----0--2--0----------0--0-----0---0----2--2--3--5-----------0-----2--0-----2--------- 
-2--0-----0--2P1--0--------------------------------------0--------------------0--2--0 
-------------2P0--------3------------------------------------------------------------ 
------------------3-----------------------------------3-----------------3------------ 
 
----------------------------------------------------------------------------------- 
----------1------------------------1-----1--0-----------3-----3--3--3-----------1-- 
----------0------------------0H3P0-------------2--0-----0-----0--2--0-----------2-- 
----0--------2--------0--1------------0-----0--------0-----------------2--0-------- 
-3-----3--------3--4---------------------------------------------------------0----- 
-----------------------------------3-----------------------3----------------------- 
 
-0H3P0----------2H5P2-- 
-------1-----3---------0 
-------2-----4--------- 
----------------------- 
----------2------------ 
----------------------- 
 

		  

See also:

tabs Simon & Garfunkel - Sounds of silence tabs R.E.M. - Everybody Hurts tabs Guns N' Roses - Knockin' On Heaven's Door tabs John Mayer - Belief tabs The Wonders - That Thing You Do tabs Cheap Trick - The Flame
e-chords

Other versions:

tabs Pearl Jam - Angel tabs Shaggy - Angel tabs Judas Priest - Angel tabs Jack Johnson - Angel tabs Boyce Avenue - Angel tabs Pete Schmidt - Angel
auto scroll beats size up size down change color hide chords drawings
tab show chords e-chords YouTube Clip e-chords hide all tabs e-chords go to top tab

share