Jewel

I'm Sensitive

Jewel

tabs Beginner beginner

save to print version add songbook text version e-mail correct tuner
chordsukulelecavacokeyboardtabbassdrumsharmonicaflute Guitar Pro
close

there isn't a video lesson for this song

chords

I'm Sensitive

	  		Layout: 
 
Intro 
Verse 1 (2x) 
Bridge 
Chorus 
Intro to verse 2 
Verse 2 (2x) 
Bridge 
Chorus 
Intro to verse 3 
Verse 3 (2x) 
Bridge 
Chorus 
Intro to verse 4 
Verse 4 (2x) 
Bridge (2 1/2x) 
Chorus 
Outro 
 
-----2-2-----2-2-|-----2-2-----2-2-|------------------------------------------ 
-----2-2-----2-2-|-----2-2-----2-2-|------------------------------------------ 
-----------------|-----------------|------------------------------------------ 
-----------------|-----------------|------------------------------------------ 
-2-2-----2-2-----|-1-1-----1-1-----|------------------------------------------ 
-----------------|-----------------|------------------------------------------ 
 Intro:                                                                        
 
-----2-2-----2-2-|-----2-2-----2-2-|-----2-2-----2-2-|-----2-2-----2-2-|------ 
-----2-2-----2-2-|-----2-2-----2-2-|-----2-2-----2-2-|-----2-2-----2-2-|------ 
-----------------|-----------------|-----------------|-----------------|------ 
-----------------|-----------------|-----------------|-----------------|------ 
-2-2-----2-2-----|-2-2-----2-2-----|-1-1-----1-1-----|-1-1-----1-1-----|------ 
-----------------|-----------------|-----------------|-----------------|------ 
 Verse:                                                            (2x)        
 
-----0-0-----0-0-|-----2-2-----2-2-|-----0-0-----0-0-|-----2-2-----2-2-|------ 
-----0-0-----0-0-|-----2-2-----2-2-|-----0-0-----0-0-|-----2-2-----2-2-|------ 
-----------------|-----------------|-----------------|-----------------|------ 
-----------------|-----------------|-----------------|-----------------|------ 
-----------------|-----------------|-----------------|-----------------|------ 
-0-0-----0-0-----|-2-2-----2-2-----|-0-0-----0-0-----|-2-2-----2-2-----|------ 
 Bridge:                                                                       
 
-----2-2-----2-2-|-----------------|-----0-0-----0-0-|-----2-2-----2-2-|------ 
-----2-2-----2-2-|-----4-4-----4-4-|-----0-0-----0-0-|-----2-2-----2-2-|------ 
-----------------|-----4-4-----4-4-|-----------------|-----------------|------ 
-----------------|-----------------|-----------------|-----------------|------ 
-2-2-----1-1-----|-----------------|-----------------|-----------------|------ 
-----------------|-4-4-----4-4-----|-0-0-----0-0-----|-2-2-----2-2-----|------ 
 Chorus:                                                                       
 
-----2-2-----2-2-|------------------------------------------------------------ 
-----2-2-----2-2-|------------------------------------------------------------ 
-----------------|------------------------------------------------------------ 
-----------------|------------------------------------------------------------ 
-2-2-----2-2-----|------------------------------------------------------------ 
-----------------|------------------------------------------------------------ 
 Outro: 
 

		  

See also:

tabs The Smiths - Heaven Knows I'm Miserable Now tabs Eagles - Hotel California tabs The Beatles - All My Loving tabs Deep Purple - Smoke On The Water (Easy Intro) tabs Dire Straits - Sultans of Swing tabs Santana - Maria Maria
e-chords

Other versions:

tabs Jewel - I'm Sensitive
auto scroll beats size up size down change color hide chords drawings
tab show chords e-chords YouTube Clip e-chords hide all tabs e-chords go to top tab

share