Jewel

Adrian

Jewel

tabs

save to print version add songbook text version e-mail correct tuner
chordsukulelecavacokeyboardtabbassdrumsharmonicaflute Guitar Pro
close

there isn't a video lesson for this song

chords

Adrian

	  		 Transcribed by: Robert Karlsson 
Email: [email protected] 
 
Layout: 
 
Intro (2x) 
Verse (4x) 
Bridge 
Chorus 
Verse 2 (4x) 
Bridge  
Chorus 
Verse 3 (4x) 
Bridge 
Chorus 
Interlude  
Verse 4 (4x) 
Bridge 
Chorus 
Verse 5 (4x) 
Bridge 
Chorus 
Interlude 
Verse 6 (4x) 
Bridge 
Chorus 
Verse 7 (4x) 
 
-----0---|-----3---|-----0---|-----0---|-------------------------------------- 
-3-----3-|-1-------|-0-----0-|-1-------|-------------------------------------- 
---0-----|---0---0-|---0-----|---0---0-|-------------------------------------- 
---------|---------|---------|---------|-------------------------------------- 
---------|-0-------|---------|-0-------|-------------------------------------- 
-0-------|---------|-0-------|---------|-------------------------------------- 
 Intro:                            (2x)                                        
 
-----0---|-----3---|-----0---|-----0---|-------------------------------------- 
-3-----3-|-1-------|-0-----0-|-1-------|-------------------------------------- 
---0-----|---0---0-|---0-----|---0---0-|-------------------------------------- 
---------|---------|---------|---------|-------------------------------------- 
---------|-0-------|---------|-0-------|-------------------------------------- 
-0-------|---------|-0-------|---------|-------------------------------------- 
 Verse:                            (4x)                                        
 
---------|-----0---|---------3|-----3---|-----------|-0-------|---------3---|- 
---------|-1-------|-----0h1--|-0-------|---------1-|---------|-----0-------|- 
-----0---|---------|----------|---------|-------0---|---------|-------0-----|- 
---2---2-|---2---2-|----------|---------|---0h2-----|---------|-------------|- 
-3-------|---------|---2------|---------|-3---------|---------|---2---------|- 
---------|---------|-3--------|---------|-----------|---------|-3-----------|- 
 Bridge:                                                                       
 
-3-------|---------|-3-------|---------|-------3-|---------|-------3-|-------- 
-1-------|---------|-0-------|---------|-----1---|---------|-----1---|-------- 
-0-------|---------|-0-------|---------|---0-----|---------|---0-----|-------- 
-2-------|---------|-0-------|---------|---------|---------|---------|-------- 
-3-------|---------|-2-------|---------|---------|---------|---------|-------- 
---------|---------|-3-------|---------|-3-------|---------|-3-------|-------- 
 Chorus:                                                                       
 
-2---2---|-2---2---|-0---0---|-0---0---|-0---0---|-0---0---|-2---2---|-2---2-- 
-3---3---|-3---3---|-0---0---|-0---0---|-1---1---|-1---1---|-3---3---|-3---3-- 
-4---4---|-4---4---|-0---0---|-0---0---|-2---2---|-2---2---|-4---4---|-4---4-- 
-4---4---|-4---4---|-2---2---|-2---2---|-2---2---|-2---2---|-4---4---|-4---4-- 
-2---2---|-2---2---|-2---2---|-2---2---|-0---0---|-0---0---|-2---2---|-2---2-- 
---------|---------|-0---0---|-0---0---|---------|---------|---------|-------- 
 Interlude   Bm         Em        Em       Am         Am        Bm       Bm    
 
-|-0---0-|-0---0---|-2---2---|-2---2---|-2---2---|-2---2---|-2---2---|-2---2-- 
-|-1---1-|-1---1---|-3---3---|-3---3---|-2---2---|-2---2---|-2---2---|-2---2-- 
-|-2---2-|-2---2---|-4---4---|-4---4---|-3---3---|-3---3---|-3---3---|-3---3-- 
-|-2---2-|-2---2---|-4---4---|-4---4---|-4---4---|-4---4---|-4---4---|-4---4-- 
-|-0---0-|-0---0---|-2---2---|-2---2---|-4---4---|-4---4---|-4---4---|-4---4-- 
-|-------|---------|---------|---------|-2---2---|-2---2---|-2---2---|-2---2-- 
     Am       Am        Bm        Bm        F#        F#        F#        F#   
 
-|---------------------------------------------------------------------------- 
-|---------------------------------------------------------------------------- 
-|---------------------------------------------------------------------------- 
-|---------------------------------------------------------------------------- 
-|---------------------------------------------------------------------------- 
-|---------------------------------------------------------------------------- 
 

		  

Full key step upFull key step up
Half key step upHalf key step up
Half key step downHalf key step down
Full key step downFull key step down
hide glossary

See also:

tabs Yes - Roundabout tabs Queen - we will rock you (solo) tabs Status Quo - Whatever you want tabs Eric Clapton - Tears In Heaven (ver. 3) tabs The Beatles - Blackbird tabs Billy Idol - White Wedding
e-chords

Other versions:

tabs Jewel - Adrian tabs Jewel - Adrian (ver. 2) tabs Black Eyed Sceva - Adrian James tabs Misc Your Songs - Adrian Salmon - V 32 tabs Running Wild - Adrian Sos
auto scroll beats size up size down change color hide chords drawings
tab show chords e-chords YouTube Clip e-chords hide all tabs e-chords go to top tab

share