Jethro Tull

Mother Goose

Jethro Tull

tabs Easy easy

save to print version add songbook text version e-mail correct tuner
chordsukulelecavacokeyboardtabbassdrumsharmonicaflute Guitar Pro
close

there isn't a video lesson for this song

chords

Mother Goose

Year: 1999 - Album: Aqualung

	  		 
                                 Verso 
Intro                              
----0--------0--3-3--|---------0----------------0-0-------3-3-3------ 
----3--3-----3--3-3--|-------1---1--0h1p0-------3-3----3--3-1-3--3--- 
----2--0h2---2--0-0--|-2-2/4---------------4---2-0----x--0-0-0--x--- 
--0--------0---------|--------------------------0-0----3---------3--- 
---------------------|----------------------------------------------- 
---------------------|----------------------------------------------- 
           (4 vezes)    (deixe soar...)                
 
                                  refrão 
-3-3-3-------0--------0--3-3---||--3-3----3---3---8--8--8--8--7-7-7-7 
-3-1-3--3----3--3-----3--3-3---||--3-3----3---3---8--8--8--8--8-8-8-8 
-0-0-0--x----2--0h2---2--0-0---||--0-0--x-0-x-0---9--9--9--9--9-9-9-9 
--------3--0--------0----------||--0-0--4---2----10-10-10-10--9-9-9-9 
-------------------------------||--x-x------------------------------- 
-------------------------------||--3-3------------------------------- 
          |___________________|            (2 vezes) 
                 (2 vezes)     
 
-5-5-5--5-5-5--5---|--8--|-------5--------5------------0-----0-----0-------------0--------0--3-3---- 
-7-7-7--5-5-5--7---|--6--|---6h8---8--6h8---6--------3-----3-----3-----3---------3--3-----3--3-3---- 
-7-7-7--7-7-7--7---|--7--|--------------------7----2-----4-----2-----2---0-------2--0h2---2--0-0---- 
-7-7-7--7-7-7--7---|--8--|-----------------------------------------3-------3---0--------0----------- 
-------------------|-----|---------------------------------------------------3---------------------- 
-------------------|-----|-------------------------------------------------------------------------- 
 
* Comentários, críticas, sugestões ou correções: [email protected] 
 
  P.S. Quem tiver a letra desta música, por favor, me mande! 
 
_______________________________________________________ 
Contribuição: Miguel Féres Guedes([email protected]) 

		  

See also:

tabs Fuel - Hemmorhage (ver. 2) tabs Jethro Tull - Locomotive Breath Beginning tabs Arctic Monkeys - Old Yellow Bricks tabs Blur - Song 2 (ver. 2) tabs Oasis - I Can See a Liar tabs Tracy Chapman - Give Me One Reason
e-chords

Other versions:

tabs Jethro Tull - Mother Goose
auto scroll beats size up size down change color hide chords drawings
tab show chords e-chords YouTube Clip e-chords hide all tabs e-chords go to top tab

share